--------------------------------------------------------------------
Bush - Adrenaline
Tabbed by DTMax - [email protected]
[email protected]---
INTRO Guitar 1
e|-----------------|
B|---12-----7------|
G|-------5-----5---|
D|-----------------|
A|-----------------|
E|-----------------|
INTRO Guitar 2
e|---------------------------------------|
B|---------------------------------------|
G|--------------------55555555-77777777--|
D|--77777777-55555555-55555555-77777777--|(all palm muted)
A|--77777777-55555555-33333333-55555555--|
E|--55555555-33333333--------------------|

INTERLUDE
e|----------------------|
B|----------------------|
G|-------0-------0------|
D|-----4---4---4---4----|
A|---2-------2----------|
E|----------------------|
CHORUS 1
e|---------------------------------------|
B|---------------------------------------|
G|--55555555----------55555555-----------|
D|--55555555-55555555-55555555-77777777--|
A|--33333333-55555555-33333333-77777777--|
E|-----------33333333----------55555555--|
CHORUS 2
e|---------------------------------------|
B|---------------------------------------|
G|-------------0---0-------------0---0---|
D|------------4-4-4-4-----------4-4-4-4--|
A|-----------2---2-------------2---2-----|
E|---------------------------------------|
BRIDGE
e|--------------------------------------------|
B|------------------------(7)7777777 77777777-|
G|--(5)5555555-(7)7777777-(7)7777777-77777777-| (guitar 1 only plays that
D|--(5)5555555-(7)7777777-(5)5555555-55555555-| in brackets, guitar 2 plays
A|--(3)3333333-(5)5555555---------------------| everything else.)
E|--------------------------------------------|
-----------------------------------------------------------------
Breakdown
-----------------------------------------------------------------
INTRO 1 x8
INTRO 1 x4 and INTRO 2 once
INTERLUDE
CHORUS x2
INTRO 1 x4
INTRO 1 x8 and INTRO 2 x2
INTERLUDE
CHORUS x2
BRIDGE x2
INTRO 1 x4
INTRO 1 x4 and INTRO 2 once
CHORUS x4
INTRO 1 X8
CHORUS x12




Ваше мнение



Капча