BAND: Bush
SONG: A Tendency To Start Fires
CD: Razorblade Suitcase

Intro:

The very begining sounds like Nigel sliding up with a slide a few times.
Then, Gavin starts this while Nigel fools around with a slide.

---------------|---------------|---------------|------------------------|
---------------|---------------|---------------|------------------------|
-7-7-7-7-7-----|-7-7-7-7-7-----|-7-7-7-7-7-----|------------------------|
-7-7-7-7-7-8-8-|-7-7-7-7-7-8-8-|-7-7-7-7-7-8-8-|-8-8/10-10-10-10-10-8-8-|
-5-5-5-5-5-8-8-|-5-5-5-5-5-8-8-|-5-5-5-5-5-8-8-|-8-8/10-10-10-10-10-8-8-|
-----------6-6-|-----------6-6-|-----------6-6-|-6-6/-8--8--8--8-8--6-6-|
(this rhythm is also played after some of the verses)

Between Intro and Verse:

-5-5-5-5---|
-5-5-5-5---|
-7-7-7-7b9-|
-----------|
-----------|
-----------|

Verses:

Whatever Guitar you hear (other than Bass) is mostly based on this
chord (just play the notes in it loosely):

-5-|
-5-|
-7-|
-7-|
-5-|
---|

Chorus:

---------------------------|
---------------------------|
-----7-7-------------------|
-9-9-7-7-7-7-5-5-5-5-7-5-0-|
-9-9-5-5-7-7-5-5-5-5-7-5-0-|
-7-7-----5-5-3-3-3-3-5-3-0-|
====




Ваше мнение



Капча