T. See http://www.olga.net/faq/ for more information. #
Date: Sat, 29 Jan 2000 12:33:00 -0800 (PST)
From: n f
Subject: bush/40_miles_from_the_sun.tab
"40 Miles From the Sun" by Bush
Written by Gavin Rossdale
Main Riff
-----------R---0-0-----------0-----
-----------E---3---3---0-------0---
-----0-----P---2---------0-------2-
---2---2---E---0-------------------
---2-------A---------3-----0-------
---0-------T-----------------------
Interlude (this is about right)
---------------------------------------------
-----------3-\-1-----/-3-3-3-3p1-1-1-0-------
-----------0--(0)0----(0)--------------2---2-
-----2-/-4---\-2---2-/-4-----------------2-2-
---0---------------------------------------0-
---------------------------------------------
Outro
Asus2 (strum) Em (hold out)
-0- -0-
-0- -0-
-2- -0-
-2- -2-
-0- -2-
--- -0-
40 miles from the sun
(repeatedly, and fade)
TAB BY ZERO606




Ваше мнение



Капча