Krasivii instrumental v ispolnenii Burzuma ,
toka vot zalko chto korotkovatii on , chto bi ego sigrat nuzno slushat ego.

Zelaju zelaju vsem udachi
1.Distortion guitar
3)---6-5-----------------------6-5-----------------------
4)-3----------------6--------3-----------------6---------
5)-------6--8---4-----3-4--6-------6--8---4-------3-4--6-
6)----------------4-------------------------4------------
zdes vstupaet v rol 2-ja getara, no pervaja prodolzaet igrat
2.Distortion guitar
1)------------------------11---------------------------------------11-----------------
2)------------------------------------------------------------------------------11----
3)-10--13-12----10-12--13----13--12-13--12--10--13-12----10-12--13----13--12-13----10-
4)-----------13---------------------------------------13------------------------------

1)---------------------11---------------------------------------11-----------------|
2)---------------------------------------------------------------------------11----|
3)-13-12----10-12--13-----13--12-13--12--10--13-12----10-12--13----13--12-13----10-|
4)-------13----------------------------------------13------------------------------|
na etom vtoraja getara prekrashiaet igrat , no pervaja eshe igraet.

3)-----------------------6-5------------------------6-5-----------------------6-5-------------------
4)-----------6---------3----------------6---------3----------------6--------3---------------6-------
5)-6--8--4-----3-4--6---------6--8--4-----3-4--6---------6--8--4-----3-4--6-------6--8--4-----3-4--6
6)---------4--------------------------4--------------------------4------------------------4---------

konec........




Ваше мнение



Капча