Burzum - Ea, Lord of the Depths (From the first album)

Transcribed by Fredrik Karlsson ([email protected])

Riff 1
e[------------------------------------------------------------------]
b[----4-3-----------------------------------------------------------]
g[---5---4----------------------------------------------------------]
d[--5-----4---------------------------------------------------------]
a[-3-------2---3-6-3-----5-6-5--------------------------------------]
E[-----------4-------4-3--------------------------------------------]

Riff 2
e[------------------------------------------------------------------]
b[------------------------------------------------------------------]
g[------------------------------------------------------------------]
d[------------10-8--------------------------------------------------]
a[-11-8----10-------------------------------------------------------]
E[------10----------------------------------------------------------]

Riff 3
e[------------------------------------------------------------------]
b[------------------------------------------------------------------]
g[------------------------------------------------------------------]
d[-55555555--------55555555666676-----------------------------------]
a[-333333334444444433333333444444-----------------------------------]
E[---------22222222-------------------------------------------------]




Ваше мнение



Капча