Song:En Ring Til a Herske
Artist:Burzum
Album:Det Som Engang Var
Tabbed by:[email protected]
Key:
AFAP=AS FAST AS POSSIBLE
p=pull-off
/=slide
h-hammer-on
pm=palm mute
...=tremelo
tr=trill
v=vibrato
b=bend
ah=artificial harmonic
()=ring out
Riff 1:
------------------------------------------------
------------------------------------------------
------------------------------------------------
--2---5---4---3-3---5/3----4--5--2--6-7--6/7/3--
--2---5---2---5-4---3/1----2--5--2--4-5--4/5/1--
--0---3---0----------------0--3--0--------------
Riff 2:
-----------------------------------------------------------
-----------------------------------------------------------
-----------------------------------------------------------
--2-----5-----4-4--3-3-3--5/3--4-44--5----2---/6-7--6/7/3--
--2-22--5-55--2-2--5-5-4--3/1--2-22--5-55-2-2-/4-5--4/5/1--
--0-00--3-33--0----------------0-00--3-33-0-0--------------
PM .. .. . .. .. .
Riff 3:
-----------------------------------
-----------------------------------
-----------------------------------
--2----3-3--------2-----4-4-5-5-3--
--2-2--3-3--2---2-2--2--4-4-5-5-3--
--0-0--1-1--0---0-0--0--2-2-3-3-1--
PM . . .
Repeat the first part and then Riff 3 a whole lot ...
Riff 4:Play three times , on the E the arrpegiation is a bit faster ....
-------------------------------------------------------------------------------------------------------------------------------------------------
-------------------------------------------------------------------------------------------------------------------------------------------------
-------0-------0----------0-------0----------0-------0---------0-------0----------0--------0-------0------0--------0-------0--------0---------0--
-----2---2---2---2------2---2---2---2------2---2---2---2-----2---2---2---2------5--------5-------5------5------4-------4--------4--------4-------
---2------------------2------------------2-----------------2------------------5--------5-------5------5----------4-------4--------4--------4-----
-0---------0--------0---------0--------0---------0-------0---------0--------3--------3-------3------3--------2-------2-------2---------2---------
Fill 1:times 8
------------
------------
--------0---
----2-------
------2-----
--0---------
Repeat RIff 1...
Fill 2:
--------------------------------------------
--------------------------------------------
--------------------------------------------
--2----2----2---3----2---2---2---2---2---3--
--2----2----2---3----2---2---2---3---2---3--
--0----1----0---2----0---1---0---1---0---2--
Riff 5a:
---------------------------------------
------0---------0--------0-------0-----
--------0---------0--------0-------0---
----4---------4-------4--------4-------
--2--------2--------2--------2---------
---------------------------------------
Riff 5b:
------------------------------------------
----------0--------0---------0--------0---
-------2---------2---------2--------2-----
-----5---------5---------5--------5-------
-------------3------------------3---------
--0-------------------0-------------------
Riff 6:Do a really prominent sweep the first couple of times , then as the
buil up happens let the chord ring and gradually
stop palm muting .
-0---------------------------------0----------
-0-0-----------------------------0------------
-0---0-------------------------0--------------
-2-----2------2-2------------2-------222222---
-2-------2----2-1-2222-----2---------222222---
-0---------0--0-0-0000---0-----------000000---
Reapeat Riff 4 times and thats It...




Ваше мнение



Капча