the Crying Orc
by Burzum
this is my first tab, but it sounds pretty close to me
riff 1
Guitar 1
e|-------------------------------|
B|-------------------------------|
G|-------------------------------|
D|-------4-3--0--3----4-3--2-3---|
A|-0--3------------3-------------|
E|-------------------------------|
riff 2
Guitar 2
e|-------------------------------------|
B|-------------------------------------|
G|--------10-9------10-9-----10-9--8-9-|
D|-----9--------11--------9------------|
A|-11----------------------------------|
E|-------------------------------------|
riff 1 - 2x
riff 1 w/ riff 2 - 5x
riff 1 - 4x
That's it as far as i can tell. Enjoy! If you find anythin wrong
with this tab please let me know!
my e-mail is [email protected]




Ваше мнение



Капча