/--------------------------------------------------------------------------
/ The following is the author's own interpretation of the song, to be used/
/ for private use and studying only /
/--------------------------------------------------------------------------
Burzum - Black Spell of Destruction (track 3 of their first album)
Transcribed by Nigel Williamson
Added to Ultimate-Guitar.com by Mikhailo ([email protected])
Notes - Really fucking easy
- = slide
- This is only an appoximation - Riff 4 is definately wrong
Tuning - Standard (I think)
Riff 1
e[------------------------------------------------------------------]
b[-----6--6---6-6-6--9--9--9------6--6---6-6-6--9-9-9-9-8-8-8-8-----]
g[-[:--5--5---5-5-5--8--8----8----5--5---5-5-5--8-8-8-8-7-7-7-7--:]-]
d[-[:--3--3---3-3-3--6--6------6--3--3---3-3-3--6-6-6-6-5-5-5-5--:]-]
a[------------------------------------------------------------------]
E[------------------------------------------------------------------]
Fill 1
Let ring
e[-------------]
b[--6----------]
g[--5----------]
d[--3----------]
a[-------------]
E[-------------]
Fill 2
Let ring throughout
e[-----------------------------------------------------------------------]
b[-----------------------------------------------------------------------]
g[-----5---5---5-5-5-----5-(5)---5-5-5---4-5-4---4-5-4---4-5-4---4-5-4---]
d[---3---3---3-------3-3-------3-------2-------2-------2-------2---------]
a[-----------------------------------------------------------------------]
E[-----------------------------------------------------------------------]
Riff 2
Let ring throughout - even picking
e[-------------------------------------------------------------------------]
b[-------------------------------------------------------------------------]
g[-[:----5-5---5-5---5---5-5---5-5---5---4-5-4---4-5-4---4-5-4---4-5-4--:]-]
d[-[:--3-----3-----3---3-----3-----3---2-------2-------2-------2--------:]-]
a[-------------------------------------------------------------------------]
E[-------------------------------------------------------------------------]
Riff 3
e[---------------------------------------------------
b[-----6--6-6-6--6---8--8--10-10-101010-10--10-10---
g[-[:--5--5-5-5--5---7--7--9--9--9-9-9--9---9--9----
d[-[:--3--3-3-3--3---5--5--7--7--7-7-7--7---7--7----
a[---------------------------------------------------
E[---------------------------------------------------
e[-----------------------------------------------------]
b[---6--6-6-6--6---8--8--10-10-101010-10--11-11-------]
g[---5--5-5-5--5---7--7--9--9--9-9-9--9---10-10----:]-]
d[---3--3-3-3--3---5--5--7--7--7-7-7--7---8--8-----:]-]
a[-----------------------------------------------------]
E[-----------------------------------------------------]
Riff 4
Let ring throughout
e[--------------------------------------------------------]
b[-----6---6-------6---6-------7--------7--7--------7-----]
g[-[:--5------5----5------5----6------6----6------6----:]-]
d[-[:--3-3------3--3-3------3--4---4-------4---4-------:]-]
a[--------------------------------------------------------]
E[--------------------------------------------------------]
Riff 5
e[-----------------------------------------------
b[-----------------------------------------------
g[-[:-------6----5----7--6-------6----5----7--6--
d[-[:--3--------------------3--------------------
a[-----------------------------------------------
E[-----------------------------------------------
e[-----------------------------------------------]
b[-----------------------------------------------]
g[-------6----5---------------6----5----------:]-]
d[--4--------------7--6--4--------------7--6--:]-]
a[-----------------------------------------------]
E[-----------------------------------------------]
Fill 3
Let ring
e[-----------]
b[-----------]
g[-----------]
d[--3--------]
a[-----------]
E[-----------]
End.
Order:
Riff 1 x 4
Fill 1
Fill 2
Riff 2 x 7
Riff 3 x 2
Riff 2 x 6
Riff 3 x 2
Riff 4 x 10
Riff 5 x 4
Fill 3
End.


Ваше мнение



Капча