Song:The Weather
Artist:Built to Spill
Album:Ancient Melodies of the Future
This is a nice, easy song to play.There were a few parts I changed
a little bit.In the chorus I added the broken chords (it sounded
better when playing without the cd), and I shortened the outro
because it repeated a lot.All I did was write each part once or
twice instead of however many times it was on the cd.I also added
the last few notes to give a little bit of finality, it kinda fades
out on the cd. This song sounds best played on an acoustic and
without a pick.
Chords:
EADGBE EADGBE EADGBE EADGBE
320003 022000 xx0232 032010
G Em D C
Strumming Pattern:
^ = downstroke
v = upstroke
This strumming is used throughout the song unless otherwise
indicated: ^ ^ v ^ v ^
/ = slide
Verse 1
G Em D Em C
Do you want it to be outside in the cool night? Where the stars
G D D G Em D Em
gravitate toward you. Do you want it to be outside in the cool
C G D D G Em
night? Where the fog wraps itself around you. Do you want it
D Em C G
to be outside in the sunshine? Where the clouds take their places
D D
for you.

Chorus
And the wind and snow and the rain that blows none of
e|------------------0----0--0-0--------------3-3-3-3------------------|
B|------------------1----1--1-1--------------0-0-0-0------------------|
G|--------------0---0----0--0-0--------------0-0-0-0----------0-------|
D|------------2-----2----2--2-2----------0---0-0-0-0--------2---------|
A|----------3-------3----3--3-3-------2------2-2-2-2------2-----------|
E|------------------0----0--0-0----3---------3-3-3-3------------------|
^ ^ v ^ ^ ^ v ^
those would matter much without you.
e|--0--0-0-0-----------2---2--2--2---0-0-0-0-0-0----0-0-0-0-0-0-------|
B|--0--0-0-0--------3--3---3--3--3---0-0-0-0-0-0----0-0-0-0-0-0-------|
G|--0--0-0-0------2----2---2--2--2---0-0-0-0-0-0----0-0-0-0-0-0-------|
D|--2--2-2-2----0------0---0--0--0---2-2-2-2-2-2----2-2-2-2-2-2-------|
A|--2--2-2-2-------------------------2-2-2-2-2-2----2-2-2-2-2-2-------|
E|--0--0-0-0-------------------------0-0-0-0-0-0----0-0-0-0-0-0-------|
^ ^ v ^ ^ ^ v ^ ^ ^ v ^ v ^ ^ ^ v ^ v ^
And as long as it's talking to you, talk of the
e|------------------------3-------------2--------0------2-------------|
B|------------------------0-------------3--------0------3-------------|
G|------------------------0-------------2--------0------2-------------|
D|-------2----------------0-------------0--------2------0-------------|
A|----2-------------------2----------------------2--------------------|
E|-0--------0-------------3----------------------0--------------------|
weather will do.
e|---0----------3----|
B|---1----------0----|
G|---0----------0----|
D|---2----------0----|
A|---3----------2----|
E|---0----------3----|

Flute solo transcribed for guitar
e|--------------------------------------------------------------------|
B|-3---3---1----------------------------------------------------------|
G|-------------4---2---4---4/5----4---2---4---4/5---4---2---4---2---2-|
D|--------------------------------------------------------------------|
A|--------------------------------------------------------------------|
E|--------------------------------------------------------------------|
e|--------------------------------------------------------------------|
B|-3---3---1----------------------------------------------------------|
G|-------------4---2---4---4/5---4---2---4---2---2--------------------|
D|--------------------------------------------------------------------|
A|--------------------------------------------------------------------|
E|--------------------------------------------------------------------|

Verse 2
G Em D Em C
Do you want it to be outside in the cool night? Where the stars
G D D G Em D
gravitate toward you. Do you want it to be outside in the
Em C G D D
sunshine? Where the song keeps itself inside you.

2nd Chorus (slightly different from the first)
And the wind and snow and the rain that blows none of
e|------------------0----0--0-0--------------3-3-3-3------------------|
B|------------------1----1--1-1--------------0-0-0-0------------------|
G|--------------0---0----0--0-0--------------0-0-0-0----------0-------|
D|------------2-----2----2--2-2----------0---0-0-0-0--------2---------|
A|----------3-------3----3--3-3-------2------2-2-2-2------2-----------|
E|------------------0----0--0-0----3---------3-3-3-3------------------|
^ ^ v ^ ^ ^ v ^
those would matter much without you.
e|--0--0-0-0-----------2---2--2--2---0-0-0-0-0-0----0-0-0-0-0-0-------|
B|--0--0-0-0--------3--3---3--3--3---0-0-0-0-0-0----0-0-0-0-0-0-------|
G|--0--0-0-0------2----2---2--2--2---0-0-0-0-0-0----0-0-0-0-0-0-------|
D|--2--2-2-2----0------0---0--0--0---2-2-2-2-2-2----2-2-2-2-2-2-------|
A|--2--2-2-2-------------------------2-2-2-2-2-2----2-2-2-2-2-2-------|
E|--0--0-0-0-------------------------0-0-0-0-0-0----0-0-0-0-0-0-------|
^ ^ v ^ ^ ^ v ^ ^ ^ v ^ v ^ ^ ^ v ^ v ^
Bridge
Same strumming pattern as verses, but has a different rhythm
G Em G Em
Nobody's hoping for better days. No one knows what to do.
G Em G Em
You're okay in your secret ways. No one bothering you.
D C Em
Might save time if I meet you there, but I don't care, I'd
G Em G Em
rather wait for you. And no one's fine and the weather's
G Em G
fine. I'd rather wait for you. And no one's home and the
Em G Em
weather's fine. I'd rather wait for you.

Outro
e|-0---2---3---2---0--------------------------------------------------|
B|---------------------3-----------3---3-----------0-----------3---0--|
G|-------------------------0---0-----------0---0-------2---4----------|
D|--------------------------------------------------------------------|
A|--------------------------------------------------------------------|
E|--------------------------------------------------------------------|
e|-------------0---2---3---2---0--------------------------------------|
B|---------3-----------------------3-----------3---3---1---0----------|
G|-2---4-------------------------------0---0-------------------2---0--|
D|--------------------------------------------------------------------|
A|--------------------------------------------------------------------|
E|--------------------------------------------------------------------|
e|-----------------------------------0---2---3---2---0----------------|
B|-------------------------------------------------------3------------|
G|-2---4---0-------0---2---4/5---4---------------------------0---0----|
D|-------------2------------------------------------------------------|
A|--------------------------------------------------------------------|
E|--------------------------------------------------------------------|
e|-----------------------------------------------------------0---2----|
B|-3---3---1---0------------------------------------------------------|
G|-----------------2---0---2---4---0-------0---2---4/5---4------------|
D|-------------------------------------2------------------------------|
A|--------------------------------------------------------------------|
E|--------------------------------------------------------------------|
e|-3---2---0----------------------------------------------------------|
B|-------------3------------------------------------------------------|
G|-----------------0---0----------------------------------------------|
D|-------------------------4---2--------------------------------------|
A|--------------------------------------------------------------------|
E|--------------------------------------------------------------------|
And you're done!
Any Questions? Comments? Problems? E-mail me: MissC [email protected]




Ваше мнение



Капча