Built To Spill
Carry The Zero
tabbed by Richard Trieu
intro:
Amaj7 E B7 F#m
e|-----|-----|-----|-----|
B|--2--|--0--|--0--|--2--|
G|--1--|--1--|--2--|--2--|
D|--2--|--2--|--1--|--4--|
A|--0--|--2--|--2--|--4--|
E|-----|--0--|-----|--2--|
Intro:
e|---9-----9-9----9------|
B|-----9-----------------|
G|-9-----9-----9---------|
D|-----------------------|
A|-----------------------|
E|-----------------------|
e|-----------------------|
B|----9-----10p9---12-9-|
G|------9-9------9-------|
D|--9--------------------|
A|-----------------------|
E|-----------------------|
e|---5p4---5p4----------5----9w8w9w8w9------|
B|-------------5-7--5/7---7-------------9--|
G|-4-----4----------------------------------|
D|------------------------------------------|
A|------------------------------------------|
E|------------------------------------------|
solo
e|--------------------------------------------------------------------|
B|--2/9~~-9/7-975-5h7p52-----2/9b~~~~10-12-9-10-9-7-95~~~4~~2b~~~~--|
G|--------------------------------------------------------------------|
D|--------------------------------------------------------------------|
A|--------------------------------------------------------------------|
E|--------------------------------------------------------------------|
e|-------------------------------------------------|
B|-2-4-5~~5/9-9w10w9-7-9-10-9/12-12-10-9-10-9-7-5~~|
G|-------------------------------------------------|
D|-------------------------------------------------|
A|-------------------------------------------------|
E|-------------------------------------------------|
e|----------------------------------------------------------|
B|-9b-7-5-5h7-4~~5-4-5/7-7/9~~~~/5~~~~5h7-4~~5-4-5/7/9/10---|
G|----------------------------------------------------------|
D|----------------------------------------------------------|
A|----------------------------------------------------------|
E|----------------------------------------------------------|

go straight back to intro chords
until it gets up to 2:52 where the rhy and chords change to:
e|-----|-----|
B|--2--|--0--|
G|--1--|--1--|
D|--2--|--2--|
A|--0--|--2--|
E|-----|--0--|
end solo
e|---------------------------------|
B|---------------------------------|
G|--16b~~--14w13w14w13w14~~~~---------|
D|---------------------------------|
A|---------------------------------|
E|---------------------------------|
e|------------------------------|
B|------------------------------|
G|--16b~~14w13w14w13w14-9~~~~---|
D|------------------------------|
A|------------------------------|
E|------------------------------|
alt end
e|-----------------------------------|
B|-----------------------------------|
G|--16b~~14w13w14w13w14-9w8w9w8w9~~--|
D|-----------------------------------|
A|-----------------------------------|
E|-----------------------------------|
end solo part
e|----------------------------------------------|
B|----------------------------------------------|
G|------13--------13-------13----------13-------|
D|----------------------------------------------|
A|-14-14----14-14----14-14----14-14-14----------|
E|----------------------------------------------|
e|------------------------------------------|
B|-------14-------14------14-------14-14----|
G|------------------------------------------|
D|-14-14----14-14----14-14----14-14---------|
A|------------------------------------------|
E|------------------------------------------|
end with this
e|------------------------------------------|
B|-------14b-------14b------14b-------14b---|
G|------------------------------------------|
D|-14-14----14-14----14-14----14-14---------|
A|------------------------------------------|
E|------------------------------------------|




Ваше мнение



Капча