BAD LIGHT - Built to Spill

Tabbed by:*Truly Ninja*
Email:[email protected]

Tuning:EADGBe (Standard)

Intro:
e|-----------------------|
B|-----------------------|
G|-----------0---2--7/---|
D|---------0---1---------|
A|-----0h2---------------|
E|---3-------------------|

Progression 1:
G / D# / G / D# / G

Progression 2:
G7 / C / D# / A#

Progression 3:
G7 / D# / A#

between verses:
e|--------------|
B|--------------|
G|--8-8/10-7----|
D|--------------|
A|--------------|
E|--------------|




Ваше мнение



Капча