From: "Jeffrey James Wolf"
Date: Mon, 11 Dec 1995 15:09:07 -0500
Subject: Buffalo Tom : "crutch.crd"
ARTIST : BUFFALO TOM
SONG : " CRUTCH" off the Let Me Come Over CD
CAPO FIFTH FRET !!!!CAPO FIFTH FRET !!!CAPO FIFTH FRET !!!
-> open strings refer to capoed 5th fret:
0 refers to 5th fret
3 refers to 8th fret...etc
INTRO/VERSE:
C--------------------------------------------------
A----3----0----------------------------------------
P----0----0----------------0--0--0--0--------------
O----0----0-----0-0-0------2--2--2--2---0--0--0----
5----2----2-----2-2-2------2--2--2--2---2--2--2----
!----3----3-----3-3-3------0--0--0--0---3--3--3----
LEAVING SHE CAME ALONG
C-------------------------------------------------------------------
A---------------------------------------------3--3--3--3--3--3--3--3
P----0--0--0--0---------------------2-2-2-2---0--0--0--0--0--0--0--0
O----2--2--2--2---0--0--0---0-0-0-0-0-0-0-0---0--0--0--0--0--0--0--0
5----2--2--2--2---2--2--2---0-0-0-0-0-0-0-0---2--2--2--2--2--2--2--2
!----0--0--0--0---3--3--3---2-2-2-2-2-2-2-2---3--3--3--3--3--3--3--3
SHE CAME ALONG WAY TO SEE ME..etc..SNOWY FIELD
CHORUS : top 4(bass) strings:
-0--0--0--0------------
-2--2--2--2--0--0--0--0
-3--3--3--3--2--2--2--2
-0--0--0--0--3--3--3--3
And...above the moon
*KEEP REPEATING THESE 2 CHORDS until
Right before the last word of the chorus ,
The chord goes back to the D/F# formation:
-------------------2--2--2--2
-0--0--0--0--0--0--0--0--0--0
-2--2--2--2--0--0--0--0--0--0 back to verse
-3--3--3--3--2--2--2--2--2--2
The train ride BACK
ANY COMMENTS welcomed: MAIL JEFF WOLF at [email protected]
--
FROM JEFF WOLF **************GREEN BAY PACKERS RULE!!!!************************





Ваше мнение



Капча