Buffalo Tom : Blue (written by Matt Piucci)
This is the B side to the Sunflower Suit 7" Single and a B side track
On the Crawl 12". I think its also on the CD reissue of their first
Album 'Buffalo Tom'.
This song is played on the accoustic and is mainly just strumming D and
Dsus2. I havent tabbed out this strumming, just alternate randomly
And it sounds fine. I have annotated this strumming as DDsus2.
Chords Used
D Dsus2 C G
E-|--2---0-------0----3----
B-|--3---3-------1----0----
G-|--2---2-------0----0----
D-|--0---0-------2----0----
A-|--X---X-------3----2----
E-|--X---X-------X----3----
The song is as follows -
===> Verse 1
DDsus2
Its blue, down my street
C G DDsus2
Just like people you might meet
DDsus2
Its true, on her face
C G DDsus2
The loneliness you cant escape
C G DDsus2
And who could ever retake her place
===> Verse 2 and 3
DDsus2
She wore, a little ?????
C G DDsus2
Seemed like life had just begun
DDsus2
Found out, on the phone
C G DDsus2
Then we knew we were all alone
C G DDsus2
And all our tears wouldnt bring her home
===> After verse 3 play the following 4 times
C G DDsus2
And all our tears wouldnt bring her home
===> Between the verses strum DDsus2
===> After the verses continue strumming DDsus2 and then
===> to finish play the following
Let ring let ring let ring
E-|-0---------0-0-0-3-------------2-------------------------------|
B-|-1---------1-1-1-0-------------3-------------------------------|
G-|-0---------0-0-0-0-------------2-------------------------------|
D-|-2---------2-2-2-0----------0--0-------------------------------|
A-|-3---------3-3-3-2---------2---X-------------------------------|
E-|-X---------X-X-X-3--------3----X-------------------------------|
This sounds O.K to me. If anyone has the lyrics missed out (?????) can
You mail them to me or post them please. Comments etc always welcome
See ya
Ryan Johnstone ([email protected])





Ваше мнение



Капча