That'll Be The Day - Buddy Holly
Tabbed by Adam Bishop
A7 - 575655
B7 - 797877
E7 - x7675x
Intro (probably a lot more complicated than this):
E|-------------------------5-------5-----5--5-5--
B|-------10-------10---------------------5--5-5--
G|--8h9------7h8------6h7-----5h6--------6--6-6--
D|------------------------------------7--5--5-5--
A|---------------------------------------7--7-7--
E|---------------------------------------5--5-5--
D riff: | A riff:
E|--------------------------|--------------------------
B|--------------------------|--------------------------
G|--------------------------|--------------------------
D|--7--7--9--9--7--7--9--9--|--------------------------
A|--5--5--5--5--5--5--5--5--|--7--7--9--9--7--7--9--9--
E|--------------------------|--5--5--5--5--5--5--5--5--
D riff
Well that'll be the day when you say goodbye
A riff
That'll be the day when you make me cry
D riff
You say you're going to leave, you know it's a lie cause
A7
That'll be the day when I die
D riff A riff
Well you give me all your loving and turtledoving
D riff A riff
All your hugs and kisses and your money too, well
D riff A riff
You know you love me baby, still you tell me baby
B7 E7
That someday well I'll be through
Chorus
Solo:
The first two rows are copied from Guitar magazine from April 1998. Shh!
E|--5--5--5--5--8--5---------0--0--0--0----------8--5---------0--0--0--0-------
B|--5--5--5--5--------8--5---x--x--x--x-------------5--8--5---x--x--x--x-------
G|--------------------------/9--9--9--9\7--5--6--------------/9--9--9--9\7--5--
D|--------------------------------------------7--------------------------------
A|-----------------------------------------------------------------------------
E|-----------------------------------------------------------------------------
E|-----8--5---------0--0--0-----------/9--9--9--/9--9--9--/9--9--9--/9--9--
B|--------5--8--5---x--x--x--8--8--8--/8--8--8--/8--8--8--/8--8--8--/8--8--
G|--6--------------/9--9--9--9--9--9--/9--9--9--/9--9--9--/9--9--9--/9--9--
D|--7----------------------------------------------------------------------
A|-------------------------------------------------------------------------
E|-------------------------------------------------------------------------
E|--------------------------------------------------------------------------
B|--------------------------------------------------------------------------
G|--------------------------------------------------------------------------
D|--7--7--9--9--7--7--9--9--7--7--9--9--7--7--9--9--------------------------
A|--5--5--5--5--5--5--5--5--5--5--5--5--5--5--5--5--7--7--9--9--7--7--9--9--
E|--------------------------------------------------5--5--5--5--5--5--5--5--
E|-------------------------------------------------------8--5-------5--
B|--------------------------------------10--10--8-----------5--5h8-----
G|--------------------------------------9---9---9----/6----------------
D|---------------------------------------------------/7----------------
A|--7--7--9--9--7--7--9--9--7--7--9--9---------------------------------
E|--5--5--5--5--5--5--5--5--5--5--5--5---------------------------------
E|-------------------------5-------5-----5--5-5--
B|-------10-------10---------------------5--5-5--
G|--8h9------7h8------6h7-----5h6--------6--6-6--
D|------------------------------------7--5--5-5--
A|---------------------------------------7--7-7--
E|---------------------------------------5--5-5--
Chorus
Well when Cupid shot his dart he shot it at your heart
So if we ever part then I'll leave you
You stay and hold my hand, you tell me boldly
That someday well I'll be through
Chorus (x2)
End riff:
E|--5-----------
B|-----8--5-----
G|-----------6--
D|-----------7--
A|--------------
E|--------------




Ваше мнение



Капча