it,s in open G tuneing D,G,D,G,B,D
intro;

D------------------------------------------------------------------------------------------------
B------------------------------------------------------------------------------------------------
G------------------------------------------------------------------------------------------------
D---0--0--0------------2--2--2-------------3--3--3-------------2--2--2---------------------------
G---0--0--0--0--3h-0p--0--0--0--0--3h--0p--0--0--0--0--3h--0p--0--0--0---------------------------
D------------------------------------------------------------------------------------------------
verse;
same as intro but only one guitar does the hammer on bit.
bridge;
stum these chords however you like.
C D F
D------------------------------------------------------------------------------------------------
B----------5----------7----------10------------------------------------------------------------------
G----------5----------7----------10------------------------------------------------------------------
D----------5----------7----------10------------------------------------------------------------------
G----------5----------7----------10------------------------------------------------------------------
D------------------------------------------------------------------------------------------------
chorus;
D------------------------------------------------------------------------------------------------
B--------------------------------------------10--10--10--10----5--5--5--5------------------------
G--------------------------------------------10--10--10--10----5--5--5--5------------------------
D---0--0--0-------------2--2--2--------------10--10--10--10----5--5--5--5------------------------
G---0--0--0--0--3h--0p--0--0--0--0--3h--0p---10--10--10--10----5--5--5--5------------------------
D------------------------------------------------------------------------------------------------

D------------------------------------------------------------------------------------------------
B--------------------------------------------10--10--10--10----5--5--5--5-------3--------5-------
G--------------------------------------------10--10--10--10----5--5--5--5-------3--------5-------
D---0--0--0-------------2--2--2--------------10--10--10--10----5--5--5--5-------3--------5-------
G---0--0--0--0--3h--0p--0--0--0--0--3h--0p---10--10--10--10----5--5--5--5-------3--------5-------
D------------------------------------------------------------------------------------------------




Ваше мнение



Капча