This is all the riffs used throughout the song 'Porno Star' by Buckcherry.
Not included is the solo, if anyone knows it post it, that would be great. Thanks alot!
intro/verse
[-------------------------|
[-------------------------|
[-------------------------|
[---------------------5---|
[--3---3-5--3---3-5-3-----|
[----5--------5---------5-|
verse
[-----------------------------------|
[-----------------------------------|
[--7--7-7------------2-5-7--7-7---|
[--7--7-7------------2-5-7--7-7---|
[--5--5-5------------0-3-5--5-5---|
[-----------------------------------|
pre-chorus
[--------------|
[--------------|
[--5-------7---|
[--5-------7---|
[--3-------5---|
[--------------|
chorus
[---------------------------------------------------------------------|
[---------------------------------------------------------------------|
[--5-5-5-5-5-5-5-5--7-7-7-7-7-7-7-7--2-2-2-2-2-2-2-2-2-2-2-2-2-2-2-2--|
[--5-5-5-5-5-5-5-5--7-7-7-7-7-7-7-7--2-2-2-2-2-2-2-2-2-2-2-2-2-2-2-2--|
[--3-3-3-3-3-3-3-3--5-5-5-5-5-5-5-5--0-0-0-0-0-0-0-0-0-0-0-0-0-0-0-0--|
[---------------------------------------------------------------------|
chorus fill
[-------------------|
[--2h3p2---3-3-3----|
[--------3----------|
[-------------------|
[-------------------|
[-------------------|
====================
/ : slide up
: slide down
b : bend
r : release bend
h : hammer on
p : pull off
+ : hold
^ : mute
t : tap
~ : vibrato
x : dead string
====================




Ваше мнение



Капча