Buckcherry, Lit up
Wes Harris,[email protected]
this are the chords used in the song. its in standard tuning. you can spice it up to make it to your kind of playing which will i think definatley make it sound better. i will add the solo's when i get more time. later
Intro
e|-------------------------------------
B|-------------------------------------
G|-5-------5-------------------5-5-5-5-
D|-5-5-5-5-5-5-5-5--3-3-x-3-3--5-5-5-5-
A|-3-5-5-5-3-5-5-5--3-3-x-3-3--3-3-3-3-
E|---3-3-3---3-3-3--1-1-x-1-1----------
verse
e|-------------------------------------------
B|-------------------------------------------
G|-------------------------------5-5-x-5-5---
D|-5-5-5-5-x-5-5-5-5-x-3-3-x-3-x-5-5-x-5-5-5-
A|-5-5-5-5-x-5-5-5-5-x-3-3-x-3-x-3-3-x-3-3-5-
E|-3-3-3-3-x-3-3-3-3-x-1-1-x-1-x-----------3-
Chorus
e|----------------------------------------------
B|----------------------------------------------
G|-8-8-x-------10-10-x-------8-8-x--------5---5-
D|-8-8-x-8-8-x-10-10-x-10-10-8-8-x-8-8/-5-5-5-5-5
A|-6-6-x-8-8-x-8--8--x-10-10-6-6-x-8-8/-5-3-5-3-5
E|-------6-6-x---------8--8--------6-6/-3-3-3-3-3
e|--------------------------------
B|--------------------------------
G|--5---5---10-10-x-5-5-x---------
D|5-5-5-5-5-10-10-x-5-5-x-3-3-x-5-
A|5-5-5-3-5-8--8--x-3-3-x-3-3-x-5-
E|3-3-3-3-3---------------1-1-x-3-




Ваше мнение



Капча