[email protected]

View this tab in full screen

song:For the Movies
Artist: Buckcherry
tabbed by: Tim Hogarth

Standard tuning


Intro

e--5----5-7-5------------------4--------2--2-0-------------5--7
B--5----5-----5--------------5------------------3--------6-----
G--6----------6------------6----------2-----------2-0----------
D--7-------------7-------6----------0------------------5-------
A-------------------3-4----------------------------------------
E--------------------------------------------------------------

Verses

e--5----5-7-5--5------------------4---------------2---2--0----------------5---7-5----
B--5-----------5---------------5----------------------------3--0-------6----------6-5
G--6-----------6------------6------------------2--------------------7----------------
D------------------------6------------------0-----------------------5----------------
A---------------------4--------------------------------------------------------------
E------------------5-----------------------------------------------------------------


Chorus

e--------------------------------------2---2--2-2-2-2----------------------
B--2---2--2-2-2-2----------------------3---3--3-3-3-3----------------------
G--2---2--2-2-2-2----------------------2---2--2-2-2-2----------------------
D--2---2--2-2-2-2----2---2--2-2-2-2----------------------2---2--2-2-2-2----
A--------------------2---2--2-2-2-2----------------------2---2--2-2-2-2----
E--------------------------------------------------------------------------

Thats about the whole song then there's some variations mixed in.




Ваше мнение



Капча