Song: Fastback 69
Artist: Buckcherry
e---------------------------------------|---------------------|
b---------------------------------------|---------------------|
g-----9---7/9-----6/7--7--6/7/6---2-----|---------------2-----|
d-----9---7/9-----6/7--7--6/7/6---2-----|--2-2--4-2-----2-----|
a-----7---5/7-----4/5--5--4/5/4---0-----|--0-0--0-0-----0-----|
E--0------------------------------------|-------------3-------|
|------This is the main riff-----------| |--This is a riff that they play
alternatavly after the main riff;
Listen for it-----|
The main riff is the intro and verse.
The chorus is like this. I haven't completely figured out how to do the
bend-riff at the end of the riff, so i just tabed out to bend the chord.
The chords are right, though.
e-------------------------------------------------------------|
b--2-2---------7-7-------9-9(10)9--------2--------------------|
g--2-2---------7-7-------9-9(10)9--------2--------------------|
d--2-2---------7-7-------9-9(10)9--------2--------------------|
a-------------------------------------------------------------|
e-------------------------------------------------------------|
(Fastback 69..)
This is the bridge. It starts out kind of quiet and palm-muted, but picks
up in it's rocking-ness. They fit the 3 chords into a sopt that sounds like
it should have 4 by playing the first chord (B) twice as long as the others.
e------------------|
b------------------|
g-----------6------| Insert your own rhythem on these chords
d---9---6---6------| (Dreams are frozen...)
a---9---6---4------|
e---7---4----------|
Lyrics:
Dealing with the dragon
And this time I'm going to be flyin
I was right between the problem
And siding with the race of my heart
I don't want to greet the morning
I don't want to fill this place on this earth no more
I'll just sit back, tune out
And carry on fuckin up my mind
Fastback 69 and I think I'm dying
All the time I'm feeling strange
And cool dreams are dyin, yeah
Bouncin off the ceiling
Wide awake and it's just midnight
I was interested in nothing
And want no part of having a home
I don't want to greet the morning
Don't want to fill this place on this earth no more
I'll just sit back, tune out
And carry on fuckin up my mind
Fastback 69 and I think I'm dyin
All this time I'm feeling strange
And cool dreams are dyin
Fastback 69 and I think I'm dyin
I'm feeling lost in all this time
And my dreams are frightening
Dreams are frozen
She's got it all and still undressed
Upset in her mind
Frantic feedback
She's got it all and still undressed
Fastback 69
Fucked up, beat on the drums, the guy says
You got it all and still undressed
Upset, beat on the drums, the guy says
Open up your eyes and get up
I gotta feeling that this time
It's gonna be flying
I was underneath the spirit
And siding with the race of my heart
I don't want to greet the morning
I don't want to fill my place on this earth no more
I'll just sit back, tune out
And carry on fuckin up my mind
Thats it, enjoy. If someone figures out exactly how to do the bend riff,
please email me at: [email protected]


Ваше мнение



Капча