Dirty Mind
by Buckcherry

tabbed by Aaron and Orvis Thomas ([email protected])
MY LITTLE GENIUS BROTHER TABBED OUT MOST OF THE SONG
I ONLY FIGURED OUT THE CHORUS AND LEAD WORK (SOME OF THE LEAD WORK)
BUCK CHERRY KICK ASS!!

intro
E----------------------------------------
B----------------------------------------
G---------------------------------------- PLAY 3X
D-2-2-2-2-2-4-4-4-4-4-5-5-5-5-5-4-4-4-4-4
A-2-2-2-2-2-4-4-4-4-4-5-5-5-5-5-4-4-4-4-4
E-0-0-0-0-0-2-2-2-2-2-3-3-3-3-3-2-2-2-2-2

THESE NOTES ARE PLAYED OVER THE INTRO
USE VIBRATO, PULL OFFS, BENDS AND TAPPING
E---------------------------------
B---------------------------------
G-9---------11----------12------11 (14B) 4TH X
D---------------------------------
A---------------------------------
E---------------------------------

THEN
E----------------------------------------
B----------------------------------------
G----------------------------------------
D-2-2-2-2-2-4-4-4-4-4-5-5-5-5-5-7-7-7-7-7
A-2-2-2-2-2-4-4-4-4-4-5-5-5-5-5-7-7-7-7-7
E-0-0-0-0-0-2-2-2-2-2-3-3-3-3-3-5-5-5-5-5

E--------- -----------
B--------- -----------
G-----9BR- ----9B7B9BR
D-8/9-----PLAY 2X 8/9--------
A-8/9----- 8/9--------
E-6/7----- 6/7--------
1. i'VE HAD IT WITH YOUR DIRTY F-CKING MIND

VERSE
E------------------------------------
B------------------------------------
G-----------------------------9B7B9BR
D-8/9XXXXX8/9XXXXX8/9XXXXXX8/9-------
A-8/9XXXXX8/9XXXXX8/9XXXXXX8/9-------
E-6/7XXXXX6/7XXXXX6/7XXXXXX6/7-------

CHORUS
E--------------------------------------------
B--------------------------------------------
G-------------------------9-9-9-9-9-9--------
D-5-5-5-5-5-5-9-9-9-9-9-9-9-9-9-9-9-9-------- PLAY 3X
A-5-5-5-5-5-5-9-9-9-9-9-9-7-7-7-7-7-7--------
E-3-3-3-3-3-3-7-7-7-7-7-7-------------0-5-0-3

E--------------------------------------------
B--------------------------------------------
G--------------------------------------------
D-5-5-5-5-5-5-9-9-9-9-9-9-7-7-7-7-7-7--------
A-5-5-5-5-5-5-9-9-9-9-9-9-7-7-7-7-7-7--------
E-3-3-3-3-3-3-7-7-7-7-7-7-5-5-5-5-5-5--------

INTERLUDE
USE INTRO CHORDS
E---------------------------------------------
B---------------------------------------------
G-9BVT--------11BVT-------12BVT----------11BVT
D---------------------------------------------
A---------------------------------------------
E---------------------------------------------
I SAW YOUR OLD LADY IN A PORNO MAG A PORNO MAG

RIFF 1
E--------
B--------
G----2-2-
D----2-2- PLAY A COUPLE
A----0-0-
E-3PO----
I CELEBRATE YOU LOVE TODAY

LITTLE RIFF IN BACKGROUND OF CHORUS
E-14
B-XX
G-11
D---
A---
E---

ENDING
E-0----3--2--------
B-0-----------3---0
G-0----------------
D-2----------------
A-2----------------
E-0----------------


Ваше мнение



Капча