Anything Anything
by Buckcherry
From the road trip soundtrack
tabbed by jonathan sture
guitar + bass
Ok ppl admitedly this is my first tab but i think its rite, only thing i cudnt do is the solos for guitar
any one with them feel free to e-mail me with corrections @ [email protected]
THis song is fairly basic to play on bass just repeat this riff all the way through the song
BASS RIFF
G--------------------------------|
D--------------------------------|
A--------------33333-55555-------|
E--00000-33333-------------------|
Thats it for the bass
FOr the guitar its pretty much the same chord sequence all the way through but played differently
INTRO PLAY THROUGH 4 TIMES
e-------------------|
B-------------------|
G-----------5>---7--|
D-2>---5>---5>---7--|
A-2>---5>---3>---5--|
E-0>---3>-----------|
VERSE X4
e---------------------------|
B---------------------------|
G---------------5555---7777-|
D-2222---5555---5555---7777-|
A-2222---5555---3333---5555-|
E-0000---3333---------------|
CHORUS SAME AS INTRO (PLAY 4 TIMES)
e-------------------|
B-------------------|
G-----------5>---7--|
D-2>---5>---5>---7--|
A-2>---5>---3>---5--|
E-0>---3>-----------|
BRIDGE + GUITAR 2 SOLO BIT (PLAY TWICE)
e-------------------|
B-------------------|
G-----------5>---7--|
D-2>---5>---5>---7--|
A-2>---5>---3>---5--|
E-0>---3>-----------|
ORDER OF PLAYING
INTRO x4
VERSE x4
CHORUSx4
BRIDGEx2
VERSE x4
CHORUS x4
BRIDGE x 4
BASS RIFF SOLO (PLAY BASS RIFF) x 8
GUITARS KICK BACK IN WITH A PICK SCRAPE AND BACK INTO CHORUS RIFF x4
CHORUS X10
OUTRO (same as intro no suprises there but with a guitar solo) x 4
THERE YA GO SORRY ABOUT THE LACK OF GUITAR 2 PART BUT IM NOT A GUITARIST BUT IF ANY OF U HAVE ANY TABS FOR
OR FIND FAULTS IN THIS TAB E-MAIL ME AT
[email protected]
ALSO CHECK OUT WWW.DEADSHOT.FREEWEBSPACE.COM





Ваше мнение



Капча