From: [email protected] (Stephan Mueller)
Subject: TAB: Were gonna win by Bryan Adams
Date: 17 Oct 1997 00:00:00 +0100

We're gonna win (Adams/Lange) by Bryan Adams "18 til i die" Tab by S.Mueller
---------------

(c) 1996 Badams Music Ltd./Zomba Music Publishers LC0485

F5
We're gonna win
C5
Don't wanna be a loser - gonna win
G#5
Cuz winnin' really is the only thing
D#5
Get out of the way we're coming in
Bb5
If ya wanna fight just step inside the ring
F5
Does anybody wanna take a swing?
C#5
It's gotta be all or nothing
G#5
Oh we're gonna be the champions

Ya we're goin' all the way
G#5
We're gonna win,win

F5
We're gonna win
C5
Forget about a draw- we gonna score
G#5
And then we're gonna get a few more
D#5
Maybe another one just to be sure
Bb5 ( *1)
We'll make ya look just like an amateur
F5
Until the final whistle it's a war
C#5
And then we gonna pick ya off the floor
G#5
We wanna hear the crowd really roar
G#5
We we're comin' in we gonna win win

C5 G#5
We're gonna win - we wanna win
C#5 C5
Cuz number one is everything
F5 C5
We're gonna win - we wanna win
F#5 F5 !
We're gonna be the champions

We're gonna win

SOLO 1
F#5
We're gonna win
C#5
Don't wanna be a loser - gonna win
A5
Cuz winnin' really is the only thing
E5
Get out of the way we're coming in
B5 (*2)
If ya wanna fight just step inside the ring
F#5
Does anybody wanna take a swing?
D5
It's gotta be all or nothing
A5
Oh we're gonna be the champions

Ya we're goin' all the way
A5
We're gonna win,win

We're gonna win
C#5 A5
We're gonna win - we wanna win
D5 C#5
Cuz number one is everything
F#5 C#5
We're gonna win - we wanna win
G5 F#5
We're gonna be the champions
We're gonna win
Solo 2

Chords in Tab-Form
1. Verse
F5 C5 G#5
E|------------------------------------------------------------------------|
B|------------------------------------------------------------------------|
G|-------------------------5--5--5--5--5--5--5--5-------------------------|
D|-3--3--3--3--3--3--3--3--5--5--5--5--5--5--5--5--6--6--6--6--6--6--6--6-|
A|-3--3--3--3--3--3--3--3--3--3--3--3--3--3--3--3--6--6--6--6--6--6--6--6-|
E|-1--1--1--1--1--1--1--1--------------------------4--4--4--4--4--4--4--4-|
D#5 Bb5 F5
E|------------------------------------------------------------------------|
B|------------------------------------------------------------------------|
G|-8--8--8--8--8--8--8--8--------------------------10-10-10-10-10-10-10-10|
D|-8--8--8--8--8--8--8--8--8--8--8--8--8--8--8--8--10-10-10-10-10-10-10-10|
A|-6--6--6--6--6--6--6--6--8--8--8--8--8--8--8--8--8--8--8--8--8--8--8--8-|
E|-------------------------6--6--6--6--6--6--6--6-------------------------|
C#5 G#5
E|---------------------------------------------------|
B|---------------------------------------------------|
G|--------------------------13-13-13-13-13-13-13-13--|
D|-11-11-11-11-11-11-11-11--13-13-13-13-13-13-13-13--|
A|-11-11-11-11-11-11-11-11--11-11-11-11-11-11-11-11--|
E|-9--9--9--9--9--9--9--9----------------------------|

2. Verse
F#5 C#5 A5
E|------------------------------------------------------------------------|
B|------------------------------------------------------------------------|
G|-------------------------6--6--6--6--6--6--6--6-------------------------|
D|-4--4--4--4--4--4--4--4--6--6--6--6--6--6--6--6--7--7--7--7--7--7--7--7-|
A|-4--4--4--4--4--4--4--4--4--4--4--4--4--4--4--4--7--7--7--7--7--7--7--7-|
E|-2--2--2--2--2--2--2--2--------------------------5--5--5--5--5--5--5--5-|
E5 B5 F#5
E|------------------------------------------------------------------------|
B|------------------------------------------------------------------------|
G|-9--9--9--9--9--9--9--9--------------------------11-11-11-11-11-11-11-11|
D|-9--9--9--9--9--9--9--9--9--9--9--9--9--9--9--9--11-11-11-11-11-11-11-11|
A|-7--7--7--7--7--7--7--7--9--9--9--9--9--9--9--9--9--9--9--9--9--9--9--9-|
E|-------------------------7--7--7--7--7--7--7--7-------------------------|
D5 A5
E|---------------------------------------------------|
B|---------------------------------------------------|
G|--------------------------14-14-14-14-14-14-14-14--|
D|-12-12-12-12-12-12-12-12--14-14-14-14-14-14-14-14--|
A|-12-12-12-12-12-12-12-12--12-12-12-12-12-12-12-12--|
E|-10-10-10-10-10-10-10-10---------------------------|

1. Solo (over F )
E|-----------------------------------------------------------------------|
B|-8--9--8--9--8--9--8--9--8--9--8--9--8--9--8--9--8--9--8--9--8--9--8--9|
G|-----------------------------------------------------------------------|
D|-----------------------------------------------------------------------|
A|-----------------------------------------------------------------------|
E|-----------------------------------------------------------------------|
2. Solo (over F#)
E|-----------------------------------------------------------------------|
B|-9-10-9-10-9-10-9-10-9-10-9-10-9-10-9-10-9-10-9-10-9-10-9-10-9-10-9-10-|
G|-----------------------------------------------------------------------|
D|-----------------------------------------------------------------------|
A|-----------------------------------------------------------------------|
E|-----------------------------------------------------------------------|
(*1) arppegios
E|-----------------------------------------------------------------------|
B|--6----6----6----6-----6-----6-------9-------9-------9--------9--------|
G|----5----5----5-----5-----5------5-------8-------8-------8--------8----|
D|-----------------------------------------------------------------------|
A|-----------------------------------------------------------------------|
E|-----------------------------------------------------------------------|
(*2) arppegios
E|-----------------------------------------------------------------------|
B|--7----7----7----7-----7-----7------10------10------10-------10--------|
G|-----6----6----6-----6-----6------6-------9-------9-------9--------9---|
D|-----------------------------------------------------------------------|
A|-----------------------------------------------------------------------|
E|-----------------------------------------------------------------------|




Ваше мнение



Капча