E-3-3-1-0------0-1-0--------0-----------
B--------3--3-3-------1-1-3--3-1-0------
G----------------------------------2-0--
D---------------------------------------
A---------------------------------------
E---------------------------------------

E-3-3-1-0------0-1-0--------0-1-0-------
B--------3--3-3-------1-1-3------3-1-0-1
G---------------------------------------
D---------------------------------------
A---------------------------------------
E---------------------------------------

Listen to the song for tempo and timing.
Does anyone know the chords?




Ваше мнение



Капча