----------------------------------------------------------------------------
EVERY THING I DO I DO IT FOR YOU - Bryan Adams
----------------------------------------------------------------------------
Tabbed by:DJ Inferno
Email:[email protected]

I checked out all the other posts and none of them seem to have the right solo.
The solo is quite easy, but you need to listen to it a couple of times to get the
feel of it.

Key: / slide
h hammer on
b bend

Tuning:e B G D A E

so the solo goes like this:

G D G D
e|------------|------------------------------------------------------9------
B|------------|-----------------------------------------9-9-----9/11---11---
G|-8-10-------|--8/10---/10-8/6-3/6---6/8-----6-6-8/10------6-6-------------
D|------8-11--|---------------------------6/8-------------------------------
A|------------|-------------------------------------------------------------
E|------------|-------------------------------------------------------------

e|------------------------------|
B|------------------------------|
G|-11-11/9/11-------------------|
D|------------8h10--8b-8b-8b-6--| (Bend the three 8's one half note each)
A|------------------------------|
E|------------------------------|

I know it looks a bit complicated but its easy enough if you practice. Any
comments please mail to [email protected] [case sensitive]. Have fun
playing this solo.
~DJ Inferno




Ваше мнение



Капча