La Migra - BRUJERIA

MAIN RIFF
D |-----------------------|
A |-----------------------|
E |-----------------5-7-7-|
B |-0-0-0-6-5-3-0-0-------|
D |----------------------------|
A |----------------------------|
E |-----------------5-7-7-5-7-7|
B |-0-0-0-6-5-3-0-0------------|
CHORUS
D |-----------------------|
A |-----------------------|
E |-----------------------|
B |-0-0-0-0-0-0-0-0-0-0-0-|





Ваше мнение



Капча