Solo starts in 1.44sek
e--------------------7--9--7--5--------------------------7~~
B---7~~~~~~~------------------7---5-5-5-5-5-----------------
D-----------------------------------------------------------
G-----------------------------------------------------------
A-----------------------------------------------------------
E-----------------------------------------------------------
e---5h7h5h7h5h7h5h7h5^1/4------------------------
B----------------------------------------7~~~~~--
D------------------------------------------------
G------------------------------------------------
A------------------------------------------------
E------------------------------------------------
e—7---9---7---5------------------------9---7---
B----------------------7~---5-5-5-5------------
G----------------------------------------------
D----------------------------------------------
A----------------------------------------------
E----------------------------------------------
If you have any cuestions, my email is [email protected]




Ваше мнение



Капча