Bruce Springsteen: Cadillac Ranch

Intro: drums

Main guitar part:
E--------------------------------------------
B--------------------------------------------
G-7------7---7-----7--7-----7---7----7-------
D----7h9-------7h9------7h9--------7---------
A--------------------------------------------
E--------------------------------------------

E--------------------------------------------
B--8------8---8------8---8-------------------
G-----7h9--------7h9--------7h9p7--7-----7---
D-------------------------------------7------
A--------------------------------------------
E--------------------------------------------

E---------------------------------------------
B---------------------------------------------
G-7------7-7---7------7-7---7------7---7----7-
D----7h9----------7h9----------7h9--------7---
A---------------------------------------------
E---------------------------------------------

E----------------------------------------------
B--8-----8---8------8--10-10--10--12--10--8----
G----7h9--------7h9----------------------------
D----------------------------------------------
A----------------------------------------------
E----------------------------------------------
Band enters

verse:
Well there she sits, buddy, just a gleamin' in the sun right
G
there to greet a working man when his day is done
C G
I'm gonna pack my pa and I'm gonna pack my aunt
G
Gonna take 'em down to the Cadilac Ranch
C D G

Eldorado fins, whitewalls and skirts
Rides just like a piece of heaven here on earth
Well buddy, when I die, just throw my body in the back
Drive me to the junkyard in my Cadillac

chorus:
Cadillac Cadillac
G G
Long and dark, shiny and black
C G
Open up, your engines let 'em roar
G G
Tearin' up the highway like a big old dinosaur
C D G

chords used:
E-----------------
B-----------------
G-----5---7-------
D-5---5---7-------
A-5---3---5-------
E-3---------------
G C D

The rest is pretty much the same. This is my first tab, I got it of listening
to my dad's Springsteen records (this is my favourite).
If you have any questions or comments, please e-mail me at [email protected]




Ваше мнение



Капча