Bruce Springsteen
Born In The U.S.A.
Keyboard arranged for guitar:
E ||--------2----0--2--4--0--2--|-------2----0--2--4--0--2--|
H ||--------0----0--0--0--0--0--|-------0----0--0--0--0--0--|
G ||----------------------------|---------------------------|
D ||----------------------------|---------------------------|
A ||--2-------------------------|--2------------------------|
E ||----------------------------|---------------------------|
E |--------2----0--2--4--0--2--|-------2----0--2--4--0--2----2--2--||
H |--------0----0--0--0--0--0--|-------0----0--0--0--0--0----0--0--||
G |----------------------------|-----------------------------------||
D |----------------------------|-----------------------------------||
A |----------------------------|-----------------------------------||
E |--0-------------------------|--0--------------------------------||
FC SCHALKE 04 rules !!!




Ваше мнение



Капча