#---------------------------------YOU BEST NOTE-------------------------------#
#This file is the author's own work and represents their interpretation of the#
#song. You may only use this file for private study, scholarship, or research.#
#-----------------------------------------------------------------------------#
#---------------------------------YOU BEST NOTE-------------------------------#
#This file is the author's own work and represents their interpretation of the#
#song. You may only use this file for private study, scholarship, or research.#
#-----------------------------------------------------------------------------#
Bruce Springsteen
Badlands (solo)
transcribed by Brian S.
Guitar Solo :
e--------------------------------------------------------|
b--7b9vr7--7b9vr7--7b(full)vvvr7(1/4)---5---7---7b9vr7---|
g--------------------------------------------------------|
d--------------------------------------------------------|
a--------------------------------------------------------|
e--------------------------------------------------------|
1 1/2 1 1/2
e--------^----------^------------------------------~-----|
b--0--19^-^r19---19^-^r19---19(full)vvvvvvr19---17-(17)--|
g--------------------------------------------------------|
d--------------------------------------------------------|
a--------------------------------------------------------|
e--------------------------------------------------------|
1 1/2
e-----------------------------^------------------------------|
b-19----19b(1-1/2)r9---------^-^-----------------------------|
g---------------------0-----^---^----------------------------|
d---------------------0----^-----^---------------------------|
a------------------------9b-------9---9bvvr9--9bvvvvv--9---7-|
e------------------------------------------------------------|
e--------------------------12-12-12------12-12-12-12-----12-12-|
b--------------------------12-12-12------12-12-12-12-----12-12-|
g---------------------/14b-----------14b-------------14b-------|
d--------------------------------------------------------------|
a--9----9b----9---7--------------------------------------------|
e--------------------------------------------------------------|
e------12-12------12-12--12-----|
b------12-12--12--12-12--12--0--|
g--14b--------14b--------14b----|
d-------------------------------|
a-------------------------------|
e-------------------------------|
Sax Solo : (arr for guitar)
e---------------------------------------------------------|
b-----12vvvvvv--1210-----------12--12h14vv-12vvvvvvvvvv-|
g-/13------------------9--9//13---------------------------|
d---------------------------------------------------------|
a---------------------------------------------------------|
e---------------------------------------------------------|
e--------------------------------------------------------------|
b-------12--------------------12vvvvvvv---------------------|
g--/13-------13--13--11--/13---------------9--9--9--11--11h13-|
d--------------------------------------------------------------|
a--------------------------------------------------------------|
e--------------------------------------------------------------|
e-------------------------------------------------------------|
b-------------------------------12--12-12--12-----------------|
g--11---------------9--9--/13---------------1311--11---11-|
d-------2vvvvvvvvvvv------------------------------------------|
a-------------------------------------------------------------|
e-------------------------------------------------------------|
repeat 2x
Interlude : PM---------------^----------------------|
e----------------------------------------^---^----------------|
b--9^----------------^(9)-------------------------------------|
g--9--^-^-^-^-^-^-^-^-(9)-------------------------------------|
d--9--^-^-^-^-^-^-^-^-(9)-------------------------------------|
a--7^----------------^(7)-------------------0-0-0-0-0-0-0-0---|
e---------------------------0-0-0-0-0-0-0-0-------------------|




Ваше мнение



Капча