#-----------------------------------------#
I Transcribed Dy: Mark Smeets I
I Email: [email protected] I
I Artist: bruce Dickinson I
I Song: Trumpets Of Jericho I
I Tuning: Normal (E,A,D,G) I
#-----------------------------------------#
Intro
G---||------------------------------------------------------------------
D---||------------------------------------------------------------------
A---||*--0--0--0--0--3--0-----0--3--5-----0--0--0--0--3--0-----0--3-----
E---||*-----------------------------------------------------------------

G------|----------------------------------------------------------------
D------|----------------------------------------------------------------
A---7--|----------------------------------------------------------------
E------|----------------------------------------------------------------
2x
G------------------------------------------------------------------|----
D------------------------------------------------------------------|----
A---0--0--0--0--3--0-----0--3--5-----0--0--0--0--3--0-----0--3--7--|----
E------------------------------------------------------------------|----
G---------------------------------|-------------------------------------
D---------------------------------|-------------------------------------
A---0--0--0--0--3--0-----0--3--5--|-------------------------------------
E---------------------------------|-------------------------------------
G------------------------------------||---------------------------------
D------------------------------------||---------------------------------
A---0--0--0--0--7-----0--0--0--0--6--||---------------------------------
E------------------------------------||---------------------------------
Time
3x
G------------------------------------------------------------------|----
D------------------------------------------------------------------|----
A---0--0--0--0--3--0-----0--3--5-----0--0--0--0--3--0-----0--3--7--|----
E------------------------------------------------------------------|----
G---------------------------------|-------------------------------------
D---------------------------------|-------------------------------------
A---0--0--0--0--3--0-----0--3--5--|-------------------------------------
E---------------------------------|-------------------------------------

G------------------------------------|----------------------------------
D------------------------------------|----------------------------------
A---0--0--0--0--7-----0--0--0--0--6--|----------------------------------
E------------------------------------|----------------------------------
G---||------------------------------------------------------------------
D---||------------------------------------------------------------------
A---||*--0--0--0--0-----3--0-----0--3--5-----0--0--0--0--3--0-----0-----
E---||*-----------------------------------------------------------------
3x
G----------||--------------------------------|--------------------------
D----------||--------------------------------|--------------------------
A---3--7--*||--0--0--0--0--3--0-----0--3--5--|--------------------------
E---------*||--------------------------------|--------------------------
G-----------------------------------------------------------------------
D-----------------------------------------------------------------------
A---0--0--0--0--7-----0--0--0--0--6-------------------------------------
E-----------------------------------------------------------------------
G---||------------------------------------------------------------------
D---||------------------------------------------------------------------
A---||*--0--0--0--0--3--0-----0--3--5-----0--0--0--0--3--0-----0--3-----
E---||*-----------------------------------------------------------------
3x
G-------||--------------------------------|-----------------------------
D-------||--------------------------------|-----------------------------
A---7--*||--0--0--0--0--3--0-----0--3--5--|-----------------------------
E------*||--------------------------------|-----------------------------
G------------------------------------||---------------------------------
D------------------------------------||---------------------------------
A---0--0--0--0--7-----0--0--0--0--6--||---------------------------------
E------------------------------------||---------------------------------
G-----------------------------------------------------------------------
D-----------------------------------------------------------------------
A-----------------------------------------------------------------------
E-----------------------------------------------------------------------
G---||------------------------------------------------------------------
D---||------------------------------------------------------------------
A---||*-----------------------------------------------------------------
E---||*--1-----1--1--1-----1--1--1-----1--1--1-----1--1-----1--1--------
3x
G-------------------------------||--------------------------------------
D-------------------------------||--------------------------------------
A------------------------------*||--------------------------------------
E---0--1--0--0--1--0--0--1--0--*||--------------------------------------
G-----------------------------------------------------------------------
D-----------------------------------------------------------------------
A---------------------------------------------------------------4--3----
E---1-----1--1--1-----1--1--1-----1--1--1-----1--1-----1--1-------------
G---------------------------------------------2--1--|-------------------
D---------------------------------------4--2--------|-------------------
A---0-----3--2--0-----2--1--0-----4--2--------------|-------------------
E---------------------------------------------------|-------------------
G-----------------------------------------------------------------------
D-----------------------------------------------------------------------
A-----------------------------------------------------------------------
E-----------------------------------------------------------------------
G---||------------------------------------------------------------------
D---||------------------------------------------------------------------
A---||*--0-----0--0--0-----0--0--0-----0--0--0-----2--3--3--3-----3-----
E---||*-----------------------------------------------------------------
G-----------------------------------------------------------------------
D-----------------------------------------------------------------------
A---3--3-----3--3--3-----0--0--3----------------------------------------
E---------------------------------1-----1--1--1-----1--1--1-----1--1----
2x
G-------------------------------------------------||--------------------
D-------------------------------------------------||--------------------
A------------------------------------------------*||--------------------
E------1--1-----0-----0--0--0-----3-----3--3--3--*||--------------------
G-----------------------------------------------------------------------
D-----------------------------------------------------------------------
A-----------------------------------------------------------------------
E-----------------------------------------------------------------------
G---||------------------------------------------------------------------
D---||------------------------------------------------------------------
A---||*--0--0--0--0--3--0-----0--3--5-----0--0--0--0--3--0-----0--3-----
E---||*-----------------------------------------------------------------
3x
G-------||--------------------------------|-----------------------------
D-------||--------------------------------|-----------------------------
A---7--*||--0--0--0--0--3--0-----0--3--5--|-----------------------------
E------*||--------------------------------|-----------------------------
G-----------------------------------------------------------------------
D-----------------------------------------------------------------------
A---0--0--0--0--7-----0--0--0--0--6-------------------------------------
E-----------------------------------------------------------------------
G---||------------------------------------------------------------------
D---||------------------------------------------------------------------
A---||*--0--0--0--0--3--0-----0--3--5-----0--0--0--0--3--0-----0--3-----
E---||*-----------------------------------------------------------------
3x
G-------||--------------------------------|-----------------------------
D-------||--------------------------------|-----------------------------
A---7--*||--0--0--0--0--3--0-----0--3--5--|-----------------------------
E------*||--------------------------------|-----------------------------
G------------------------------------|----------------------------------
D------------------------------------|----------------------------------
A---0--0--0--0--7-----0--0--0--0--6--|----------------------------------
E------------------------------------|----------------------------------
Pre-Chorus
G---||------------------------------------------------------------------
D---||------------------------------------------------------------------
A---||*-----------------------------------------------------------------
E---||*--1-----1--1--1-----1--1--1-----1--1--1-----1--1-----1--1--------
Time: 1:50
3x
G-------------------------------||--------------------------------------
D-------------------------------||--------------------------------------
A------------------------------*||--------------------------------------
E---0--1--0--0--1--0--0--1--0--*||--------------------------------------
G-----------------------------------------------------------------------
D-----------------------------------------------------------------------
A-----------------------------------------------------------------------
E---1-----1--1--1-----1--1--1-----1--1--1-----1--1--1-----1--1-----1----
G------------------------------------------------------2--1--|----------
D------------------------------------------------4--2--------|----------
A------4--3--0-----3--2--0-----2--1--0-----4--2--------------|----------
E---1--------------------------------------------------------|----------
Chorus
G---||------------------------------------------------------------------
D---||------------------------------------------------------------------
A---||*--0-----0--0--0-----0--0--0-----0--0--0-----2--3--3--3-----3-----
E---||*-----------------------------------------------------------------
Time: 2:06
G-----------------------------------------------------------------------
D-----------------------------------------------------------------------
A---3--3-----3--3--3-----0--0--3----------------------------------------
E---------------------------------1-----1--1--1-----1--1--1-----1--1----
4x
G-------------------------------------------------||--------------------
D-------------------------------------------------||--------------------
A------------------------------------------------*||--------------------
E------1--1-----0-----0--0--0-----3-----3--3--3--*||--------------------
Solo
G------------------------------------------------------||---------------
D------------------------------------------------------||---------------
A------------------------------------------------------||---------------
E------------------------------------------------------||---------------
Time
G-----------------------------------------------------------------------
D-----------------------------------------------------------------------
A---5-----5--5--5-----5--5--5-----5--5--5-----5--5--5-----5--5--5-------
E-----------------------------------------------------------------------
G-----------------------------------------------------------------------
D-----------------------------------------------------------------------
A---5--5--5-----5--5--5-----5--5--5-----3--3--3--3--2--2--2--0--0--0----
E-----------------------------------------------------------------------
G------------------------|----------------------------------------------
D------------------------|----------------------------------------------
A------------------------|----------------------------------------------
E---3--3--3--5--3--5--0--|----------------------------------------------
G-----------------------------------------------------------------------
D-----------------------------------------------------------------------
A---5-----5--5--5-----5--5--5-----5--5--5-----5--5--5-----5--5--5-------
E-----------------------------------------------------------------------
G-----------------------------------------------------------------------
D---------------------------------------10h12--12--12--12-----10h12-----
A---5--5-----5--8--8-----8--12--12--12----------------------------------
E-----------------------------------------------------------------------
G-----------------------------------------------------------------------
D---12--12--12-----12--12-----------------------------------------------
A--------------------------3--3--3--2--2--2--0--0--0--------------------
E-----------------------------------------------------3--3--3--1--1-----
G------------|----------------------------------------------------------
D------------|----------------------------------------------------------
A------------|----------------------------------------------------------
E---1--0--0--|----------------------------------------------------------
G-----------------------------------------------------------------------
D-----------------------------------------------------------------------
A---------------------------3--3-----------------------------3--3-------
E---5--3--3--3--3--5-----5-----------5--3--3--3--3--5-----5--------5----
G-----------------------------------------------------------------------
D-----------------------------------------------------------------------
A------------------------3--3-----------------------------3--3-----1----
E---3--3--3--3--5-----5-----------5--3--3--3--3--5-----5----------------
*end*




Ваше мнение



Капча