Author/Artist: Bruce Dickinson
Title: Tattooed Millionaire
Album: Alive at Studio A
Transcribed by: Swen O. Heiland
Email: [email protected]
[email protected]-------------
-10-10-10-9--5-5-5-4--|-10-10-10-9-10-12-12--|-----------------------------
-9--9--9--9--4-4-4-4--|-9--9--9--9-9--11-11--|-----------------------------
------------------------|-----------------------|-----------------------------
------------------------|-----------------------|-----------------------------
------------------------|-----------------------|-----------------------------
Intro/Verse
-------------|--------------------|-------------------------------------------
-------------|--------------------|-------------------------------------------
-2--4--------|-2--4--6-64-4/6-6--|-------------------------------------------
-2--4--6--7--|-2--4--6-64-4/6-6--|-------------------------------------------
-0--2--6--7--|-0--2--4-42-2/4-4--|-------------------------------------------
-------4--5--|--------------------|-------------------------------------------
Bridge (2x)
-------0----------0----------0----------0--|----------------------------------
---------0----------0----------0-----------|----------------------------------
----------------4---------------------2----|----------------------------------
-----2--------4------------5--------2------|----------------------------------
---2--------2------------5--------0--------|----------------------------------
-0---------------------4-------------------|----------------------------------
Chorus (2x) [this differs from the album version]
-----------------------------|------------------------------------------------
-----------------------------|------------------------------------------------
-----0-----0-----0-----0--2--|------------------------------------------------
---2-----2-----2-----2----2--|------------------------------------------------
-0-----0-----0-----0------0--|------------------------------------------------
-----------------------------|------------------------------------------------
Bridge before Solo/Outro (2x)
-----------------|----------------|----------------|---------12-----------|---
------9-10-9-----|------9-10-9----|------9-10-9----|---12b14----12b14-12v-|---
-9-11--------11--|-9-11--------11-|-9-11--------11-|-9--------------------|---
-----------------|----------------|----------------|----------------------|---
-----------------|----------------|----------------|----------------------|---
-----------------|----------------|----------------|----------------------|---
Beginning of Solo/after this the Solo Rythm is the same as Verse!
***SOLO***
Transcribed by: Stephan E. Tillmann
Email: [email protected]
[email protected]-------------
-9-10-12-12b14r12-12-10--9-10-12-12b14r12-12-10--9-10-12-12b14r12-12-10-------
------------------------------------------------------------------------------
------------------------------------------------------------------------------
------------------------------------------------------------------------------
------------------------------------------------------------------------------
---------9-12--------9h12p9p7---7h9h12p9p7---7h9h12p9p7---7h9-12b14-----------
-9-12-10---------------------h9-----------h9-----------h9---------------------
------------------------------------------------------------------------------
------------------------------------------------------------------------------
------------------------------------------------------------------------------
------------------------------------------------------------------------------
-12b14r12b14r12------------------------------------------9------9------9------
----------------12----------------------------------9h12---9h12---9h12--------
----------------11b13r11-9----9----9----9-11b13r11----------------------------
---------------------------11---11---11---------------------------------------
------------------------------------------------------------------------------
------------------------------------------------------------------------------
------------------------------------------------------------------------------
-14p12p9-14p12p9-14p12p9-14p12p9-14p12p9-14p12p9-14p12p9-14p12p9-14p12p9------
------------------------------------------------------------------------------
------------------------------------------------------------------------------
------------------------------------------------------------------------------
------------------------------------------------------------------------------
-------------------------14p16-14-12-11-12-9--------------------------11-12---
-14p12p9-14p12p9-14p12p9---------------------12b14r12----10-12b14-12----------
------------------------------------------------------------------------------
------------------------------------------------------------------------------
------------------------------------------------------------------------------
------------------------------------------------------------------------------
-11h12p11-----------------------------------------------------11-12-11h12p11--
----------14-12-10----10-12b14-12--15b16r15-14----10-12b14-12-----------------
------------------------------------------------------------------------------
------------------------------------------------------------------------------
------------------------------------------------------------------------------
------------------------------------------------------------------------------
---------------------------------------------------------16--------16-17------
-14-12-10----10-12b14-12-----16-17----16-17-19--16-17-19-----17-19------------
--------------------------18-------18-----------------------------------------
------------------------------------------------------------------------------
------------------------------------------------------------------------------
------------------------------------------------------------------------------
----16-17-19b21-19b21r19b21---------------------------------------------------
-19---------------------------------------------------------------------------
------------------------------------------------------------------------------
------------------------------------------------------------------------------
------------------------------------------------------------------------------
------------------------------------------------------------------------------




Ваше мнение



Капча