Bruce Dickinson - Road To Hell
EMail: [email protected]
Chorus Riff:
E-------------------------------------------------|
B-------------------------------------------------|
G-----------------2------------5--4--2--5--4--2---|
D-2*---2--4--5*------5--4-----------------------5-|
A--------------------------5*---------------------|
E-------------------------------------------------|
Verse Riff:
E-------------------------------------------------|
B-------------------------------------------------|
G-------------------------------------------------|
D-------------------------------------------------|
A-2-------2-------2-------2-------2-------0-2-----|
E-0--0-0--0--0-0--0--0-0--0--0-0--0--0-0--0-0-0-0-|
pm. pm. pm. pm. pm. pm.
Riff 1:
E---------------------------------------------|
B---------------------------------------------|
G---------------------------------------------|
D---------------------------------------------|
A--5------------------------------------------|
E----7-6-5------------------------------------|
pm...pm...
Pre-chorus Riff:
E---------------------------------------------|
B---------------------------------------------|
G---------------------------------------------|
D--4--------4--------5----------------7-------|
A--2--------2--------3---------7--7---5-------|
E------------------------------5--5-----------|
Riff 2: (play it 3 times)
E--2--------------2--------------2-------------|
B----4p0-4p0-4p0----4p0-4p0-4p0----4p0-4p0-4p0-|
G----------------------------------------------|
D----------------------------------------------|
A----------------------------------------------|
E----------------------------------------------|
E-2---------------3---------------3-------------|
B----4p0-4p0-4p0-----5p0-5p0-5p0----5p0-5p0-5p0-|
G-----------------------------------------------|
D-----------------------------------------------|
A-----------------------------------------------|
E-----------------------------------------------|
E-5---------------5---------------------------|
B----7p0-7p0-7p0-----7p0-7p0-7p0--------------|
G---------------------------------------------|
D---------------------------------------------|
A---------------------------------------------|
E---------------------------------------------|
then, play this once:
E-2------------3-------------2----------------|
B--4p0-4p0-4p0---5p0-5p0-5p0---4p0-4p0-4p0----|
G---------------------------------------------|
D---------------------------------------------|
A---------------------------------------------|
E---------------------------------------------|
E-3-------------5--------------3--------------|
B---5p0-5p0-5p0---7p0-7p0-7p0----5p0-5p0-5p0--|
G---------------------------------------------|
D---------------------------------------------|
A---------------------------------------------|
E---------------------------------------------|
E-5--------------7-------------8----------------|
B---7p0-7p0-7p0----9p0-9p0-9p0---10p0-10p0-10p0-|
G-----------------------------------------------|
D-----------------------------------------------|
A-----------------------------------------------|
E-----------------------------------------------|
E-9-------------------------------------------|
B---11p0-11p0-11p0----------------------------|
G---------------------------------------------|
D---------------------------------------------|
A---------------------------------------------|
E---------------------------------------------|
Riff 3:
This is the other guitar while riff 2
E---------------------------------------------|
B---------------------------------------------|
G---------------------------------------------|
D-4-4-4-4-4-------7-7-7-7-7--------9-9-9-9-9--|
A-2-2-2-2-2-------5-5-5-5-5--------7-7-7-7-7--|
E---------------------------------------------|
E---------------------------------------------|
B---------------------------------------------|
G---------------------------------------------|
D-4-4-4-4-4-------5-5-5-5-5--------2-2-2-2-2--|
A-2-2-2-2-2-------3-3-3-3-3--------0-0-0-0-0--|
E---------------------------------------------|
E---------------------------------------------|
B---------------------------------------------|
G---------------------------------------------|
D-4-4-4-4-4-------7-7-7-7-7--------9-9-9-9-9--|
A-2-2-2-2-2-------5-5-5-5-5--------7-7-7-7-7--|
E---------------------------------------------|
E---------------------------------------------|
B---------------------------------------------|
G---------------------------------------------|
D-4-------------5-------------7---------------|
A-2-------------3-------------5---------------|
E---------------------------------------------|
SOLO:
E--12*--12-14-15-14-12----------------------------|
B----------------------15-12----------------------|
G----------------------------14-12----------------|
D----------------------------------14p12----12----|
A----------------------------------------14----14-|
E-------------------------------------------------|
E---------------------------------------------|
B---------------------------------------------|
G---------------------------------------------|
D---------------------------------7-9-10-11---|
A-12-10----10----9b*------10p7-10-------------|
E-------12----12------------------------------|
pm...pm...pm...pm
E---------------------------------------------|
B---------------------------------------------|
G-7-9*-------12b------12--11--------11--7*----|
D------------------12----------9-12-----------|
A---------------14----------------------------|
E---------------------------------------------|
pm...pm pm...pm
E--------15-17-19-17-15----------------14-15-14-|
B--17-19----------------19-17----15-17----------|
G-----------------------------------------------|
D-----------------------------------------------|
A-----------------------------------------------|
E-----------------------------------------------|
E---------------15-17-19-17-15----------------|
B17-15----17-19----------------19-17----15-17-|
G---------------------------------------------|
D---------------------------------------------|
A---------------------------------------------|
E---------------------------------------------|
E14-15-14----------------15-17-19-17-15-------|
B---------17-15----17-19----------------19-17-|
G---------------------------------------------|
D---------------------------------------------|
A---------------------------------------------|
E---------------------------------------------|
E-------21*--21b---------17-15-14-------------|
B19-17----------------------------17-15-14----|
G------------------------------------------16-|
D---------------------------------------------|
A---------------------------------------------|
E---------------------------------------------|
E------------------------------------------------|
B------------------------------------------------|
G15-14-12----12----------------------------------|
D---------14----12-14----12----------------------|
A---------------------14----14---12-10----10--9--|
E--------------------------------------12--------|
...pm....pm...pm....
Riff 4:
Rhythm Guitar of the SOLO
E---------------------------------------------|
B---------------------------------------------|
G---------------------------------------------|
D--------------------------------5------------|
A--2-------5------7------2-------3-------7----|
E--0-------3------5------0---------------5----|
E---------------------------------------------|
B---------------------------------------------|
G---------------------------------------------|
D--------------------------------5------------|
A--2-------5------7------2-------3-------7----|
E--0-------3------5------0---------------5----|
Ending Riff:
E---------------------------------------------|
B---------------------------------------------|
G---------------------------------------------|
D---------------------------------------------|
A--7p5---7p5---7p5---7p5---7p5----------------|
E-----7-----7-----7-----7-----7---------------|
E---------------------------------------------|
B---------------------------------------------|
G-4p2---4p2---4p2---4p2---4p2-----------------|
D----4-----4-----4-----4-----4----------------|
A---------------------------------------------|
E---------------------------------------------|
E---------------------------------------------|
B---------------------------------------------|
G-9p7---9p7---9p7---9p7---9p7-----------------|
D----9-----9-----9-----9-----9----9-9-9/------|
A---------------------------------7-7-7/------|
E---------------------------------------------|




Ваше мнение



Капча