Песенка Jerusalem с албома Chemical Wedding///
все дано в таблатуре, никаких аккордов , в смысле их обозначений
вообще играть ее легко!

Вступление-
E---------------------------0-------------------------------------|
B-------------------1-------1------3------------------------------|
G-|-5-s-7-7-7-7--5-4-4h54-0-2---0-------2------2------------------------------|
D-|-0-----0-0-0--0-0-0--0-0-0---2-------2------0------------------------------|
A-------------------3---------------------------------------------|
E-----------------------------------------------------------------|


E-----------------------------------0-----------------------------|
B---------------------------1-------1------3----------------------|
G-|-2--4-5--5--5s7--7-7-7-5--4h5--0-2---0-------2------2----------------------|
D-|-0--0-0--0--0-0--0-0-0-0--0-0--0-0---2-------2------0----------------------|
A---------------------------3-------------------------------------|
E-----------------------------------------------------------------|


E-----------------------------------------------------------------|
B-----------------------------------------------------------------|
G-----------------------------------------------------------------|
D-|-0---0-0---0---0-0---0---0-0---0----0-0------------------------------------|
A-----------------------------------------------------------------|
E-----------------------------------------------------------------|


E-------------------------------0-0-0-0---------------------------|
B-|--3--3--3--3--1-1-1-1--3-3-3-3--1-1-1-1--1-1-1-1--3-3-3-3------------------|
G-|--2--2--2--2--0-0-0-0--2-2-2-2--0-0-0-0--2-2-2-2--2-2-2-2------------------|
D-|--0--0--0--0--2-2-2-2--0-0-0-0--2-2-2-3--2-2-2-2--0-0-0-0------------------|
A----3-3-3-3-----------3-3-3-3------------------------------------|
E-----------------------------------------------------------------|


E-------------------------0-0-0-0---------------------------------|
B-|-10-10-10-10-8-6h8-6-5h6--1-1-1-1--1-1-1-1--3-3-3-3------------------------|
G---0-0---0-0-0--0-0-0-0--2-2-2-2--2-2-2-2------------------------|
D----------------2-2-2-2--2-2-2-2--0-0-0-0------------------------|
A----------------3-3-3-3------------------------------------------|
E-----------------------------------------------------------------|


E-----------------------------------0-0-0-0-----------------------|
B--------------------------1-1-1-1--1-1-1-1--3-3-3-3--------------|
G-|-6-8-10-10--13-13-13--12-10-8-8h10--0-0-0-0--2-2-2-2--2-2-2-2--------------|
D--------------------------2-2-2-2--2-2-2-2--0-0-0-0--------------|
A--------------------------3-3-3-3--------------------------------|
E-----------------------------------------------------------------|

E-----------------------------------------------------------------|
B-----------------------------------------------------------------|
G-----------------------------------------------------------------|
D-|-0---0-0---0---0-0---0---0-0---0----0-0------------------------------------|
A-----------------------------------------------------------------|
E-----------------------------------------------------------------|
play this riff twice
E-------------------------------0-0-0-0---------------------------|
B-|--3--3--3--3--1-1-1-1--3-3-3-3--1-1-1-1--1-1-1-1--3-3-3-3------------------|
G-|--2--2--2--2--0-0-0-0--2-2-2-2--0-0-0-0--2-2-2-2--2-2-2-2------------------|
D-|--0--0--0--0--2-2-2-2--0-0-0-0--2-2-2-3--2-2-2-2--0-0-0-0------------------|
A----3-3-3-3-----------3-3-3-3------------------------------------|
E-----------------------------------------------------------------|

E-|--1-----------------0------------------------------------------------------|
B-|--3-------1---------1------------------------------------------------------|
G-|--2-------2---------2------------------------------------------------------|
D-|--0-------0---------2------------------------------------------------------|
A-|----------3----------------------------------------------------------------|
E-----------------------------------------------------------------|
let it rain

E-|--1-----------------0------------------------------------------------------|
B-|--3-------1---------1------------------------------------------------------|
G-|--2-------2---------2------------------------------------------------------|
D-|--0-------0---------2------------------------------------------------------|
A-|----------3----------------------------------------------------------------|
E-----------------------------------------------------------------|
let it rain
play this riff twice
E-------------------------------0-0-0-0---------------------------|
B-|--3--3--3--3--1-1-1-1--3-3-3-3--1-1-1-1--1-1-1-1--3-3-3-3------------------|
G-|--2--2--2--2--0-0-0-0--2-2-2-2--0-0-0-0--2-2-2-2--2-2-2-2------------------|
D-|--0--0--0--0--2-2-2-2--0-0-0-0--2-2-2-3--2-2-2-2--0-0-0-0------------------|
A----3-3-3-3-----------3-3-3-3------------------------------------|
E-----------------------------------------------------------------|

E-|--1-----------------0------------------------------------------------------|
B-|--3-------1---------1------------------------------------------------------|
G-|--2-------2---------2------------------------------------------------------|
D-|--0-------0---------2------------------------------------------------------|
A-|----------3----------------------------------------------------------------|
E-----------------------------------------------------------------|
let it rain

E-|--1-----------------0------------------------------------------------------|
B-|--3-------1---------1------------------------------------------------------|
G-|--2-------2---------2------------------------------------------------------|
D-|--0-------0---------2------------------------------------------------------|
A-|----------3----------------------------------------------------------------|
E-----------------------------------------------------------------|
let it rain

E-----------------------------------------------------------------|
B-----------------------------------------------------------------|
G-|-7--5--3-3-3-3------5-5-5-5-----3-3-3-3----5-5-5---------------------------|
D-|-7--5--3-3-3-3------5-5-5-5-----3-3-3-3----5-5-5---------------------------|
A-|-5--3--1-1-1-1------3-3-3-3-----1-1-1-1----3-3-3-.....---------------------|
E-----------------------------------------------------------------|
from the frozer water

E-|--1-----------------0------------------------------------------------------|
B-|--3-------1---------1------------------------------------------------------|
G-|--2-------2---------2------------------------------------------------------|
D-|--0-------0---------2------------------------------------------------------|
A-|----------3----------------------------------------------------------------|
E-----------------------------------------------------------------|
let it rain ...
play this riff twice
E-------------------------------0-0-0-0---------------------------|
B-|--3--3--3--3--1-1-1-1--3-3-3-3--1-1-1-1--1-1-1-1--3-3-3-3------------------|
G-|--2--2--2--2--0-0-0-0--2-2-2-2--0-0-0-0--2-2-2-2--2-2-2-2------------------|
D-|--0--0--0--0--2-2-2-2--0-0-0-0--2-2-2-3--2-2-2-2--0-0-0-0------------------|
A----3-3-3-3-----------3-3-3-3------------------------------------|
E-----------------------------------------------------------------|

E-|--1-----------------0------------------------------------------------------|
B-|--3-------1---------1------------------------------------------------------|
G-|--2-------2---------2------------------------------------------------------|
D-|--0-------0---------2------------------------------------------------------|
A-|----------3----------------------------------------------------------------|
E-----------------------------------------------------------------|
let it rain ...
E-----------------------------------------------------------------|
B-----------------------------------------------------------------|
G-|-7--5--3-3-3-3------5-5-5-5-----3-3-3-3----5-5-5---------------------------|
D-|-7--5--3-3-3-3------5-5-5-5-----3-3-3-3----5-5-5---------------------------|
A-|-5--3--1-1-1-1------3-3-3-3-----1-1-1-1----3-3-3-.....---------------------|
E-----------------------------------------------------------------|

play four timeS:
E-----------------------------------------------------------------|
B-----------------------------------------------------------------|
G-|--5----7--7---5--7------3-3----3-5---5-------------------------------------|
D-|--5----7--7---5--7---2--3-3--2-3-5---5-------------------------------------|
A-|--3----5--5---3--5---0--1-1--0-1-3---3-------------------------------------|
E-----------------------------------------------------------------|


E-----------------------------------------------------------------|
B-----------------------------------------------------------------|
G-----------------------------------------------------------------|
D-----------------------------------------------------------------|
A-----------------------------------------------------------------|
E-|--0-000--0-000-0-000-------------------------------------------------------|
here comes the solo
Solo Rythem
E-----------------------------------------------------------------|
B-----------------------------------------------------------------|
G-|--5---7-7--5-7---------5---7-7--5-7----------------------------------------|
D-|--5---7-7--5-7--2-3-3--5---7-7--5-7--10-9-7--------------------------------|
A-|--3---5-5--3-5--0-1-1--3---5-5--3-5--8--7-5--------------------------------|
E-----------------------------------------------------------------|

(Я люблю эту часть!...) The ending riff .
E-----------------------------------------------------------------|
B-----------------------------------------------------------------|
G-|--7----------2-------------------------------------------------------------|
D-|--7----------2-------3-------5---------------------------------------------|
A-|--5----------0-------3-------5---------------------------------------------|
E-----------1-------3---------------------------------------------|
Оооо ооо ооо.....

Иерусалим...
Вот блин Дикинсон Дает!




Ваше мнение



Капча