Artist: Bruce Dickinson
Title: Chemical Wedding
Album: The Chemical Wedding
Transcribed by: Costas TG
Email: [email protected]
Intro:
1st part (3x)
G-------------------------------------------------|
D-------------------------------------------------|
A-7--7-7-7-7--7--7-7-5-4-3--3-3-3-3--3--3-3--5-5--|
E-------------------------------------------------|

2nd part (1x)
G-------------------------------------------------|
D-------------------------------------------------|
A-7--7-7-7-7--7--7-7-5-4-3--3-3-3-3--3--3-3--6-6--|
E-------------------------------------------------|
Verse(4x)
G------------------------|
D------------------------|
A-7---7-7-7--3---3-3-3---|
E------------------------|
Chorus:
1st part (1x)
G----------------------------------|
D----------------------------------|
A-7--7-7--5--5-5----------3--3-3---|
E-----------------3--3-3-----------|
G-----------------------------------|
D-----------------------------------|
A-7--7-7--5--5-5--7--7-7--5-4-5-7---|
E-----------------------------------|
2nd part (1x)
G----------------------------------|
D----------------------------------|
A-7--7-7--5--5-5----------3--3-3---|
E-----------------3--3-3-----------|
G----------------------|
D----------------------|
A-7--7-7--5--5-5--7~---|
E----------------------|
Repeat Intro (1st part-1x & 2nd part-1x)
Repeat Verse (4x)
Interlude
G----------------------------------------------------------------|
D----------------------------------------------------------------|
A-5-5-5-5-5-5-5-5-3-3-3-3-3-3-3-3-5-5-5-5-5-5-5-5-3-3-3-3-3-3-3-3|
E----------------------------------------------------------------|
Repeat Chorus (1st part-1x & 2nd part-1x)
Guitar Solo
G-----------------------------------------------------------------|
D-----------------------------------------------------------------|
A-----------------6-6-6-6-6-6-6-6-7-7-7-7-7-7-7-7-7-7-7-7-7-7-7-7-|
E-5-5-5-5-5-5-5-5-------------------------------------------------|
G-----------------------------------------------------------------|
D-----------------------------------------------------------------|
A-5-5-5-5-5-5-5-5-5-5-5-5-5-5-5-5-3-3-3-3-3-3-3-3-2-2-2-2-2-2-2-2-|
E-----------------------------------------------------------------|
G-----------|
D-----------|
A-----7-5---|
E-0---------|
Repeat Chorus (1st part-3x & 2nd part-1x)
Any corrects, please, e-mail me.




Ваше мнение



Капча