MAIN CHORDS
C5 F5 G5 G#5 G5 B5 C5
e------------------------|
B------------------------|
G-|-5---------------------4-5-5------|
D-|-5---3-5-6-6-----5---5-4-5-5------|
A-|-3---3-5-6-6-----5---5-2-3-3------|
E-|-----1-3-4-4-----3---3------------|
SPOONS PART
e-|-13-13-13-13-13--------------------|
B-------------------------|
G--------12-12-12-12-12---|
D-------------------------|
A-------------------------|
E-------------------------|
VERSE
PRE-CHORUS

CHORUS
C5 F5 G5 G#5 A#5 D5 D#5 D5
e------------------------|
B------------------------|
G-|-5---------------------7-8---7----|
D-|-5---3-5-6-6-----8---8-7-8---7----|
A-|-3---3-5-6-6-----8---8-5-6---5----|
E-|-----1-3-4-4-----6---6------------|
Crazy, but it feels alright

VERSE

PRE-CHORUS
CHORUS
BREAK
D#
Crazy, I just can´t sleep
D#
I´m so excited, I´m in too deep
B A#
Crazy, but it feels alright
B A#
Every day and every night
SOLO
bend and release slide down
e---------------------------------------------|
B-|-16b(18)r16---11h13h16p13p11h13h16p11h13h16p11h13---|
G---------------------------------------------|
D---------------------------------------------|
A---------------------------------------------|
E---------------------------------------------|
artificial harmonics
e------------------------|
B------11----------------|
G-|-5-8-10-10-10-8------8----|
D------------------------|
A------------------------|
E------------------------|
> Here, i´m really really really not sure !
e----------------------------|
B-|-11p8---------------------------------|
G-|------10p8h10p8-----------------------|
D------10p8------------------|
A-----------10p8h10p8--------|
E---------------------8p6h8--|
CHORUS
...
...
...
C5 F5 G5 B5 C5
Baby thinkin´ of you keeps me up all night




Ваше мнение



Капча