E------------------------------------------------------------------------------
B------------------------------------------------------------------------------
G---------------------------------------------------Repeat 4x------------------
D------------------------------------------------------------------------------
A----------------5---7---------------------------------------------------------
E------7-7-----------7--7----5---6---------------------------------------------

!ATTENTION! this part is played by a backing guitar
E---4---------2----------4/3----7------3/3/2-------------7------------5--------
B------------4--------4------------2------------8----------------------8-------
G----4-------1-------3/4--------3----------------------------------------------
D-3-1-----------2---1----1-----3--4-----9------------------0/3-----------------
A-------------------------------------------5---------------------3------------
E-4----5-------6--------7----8----------9--------------1/3-----1/6-------------




Ваше мнение



Капча