t. See http://www.olga.net/faq/ for more information. #
From: [email protected]
Date: Thu, 02 Mar 2000 18:04:22 +0100
Subject: s/britney_spears/crazy_stop_remix.tab
artist : Britney Spears
song : CRAZY (STOP REMIX)
tabbed by : [email protected]
So here's the single edit 'stop remix' of CRAZY...
You can also find the album version tab, called 'crazy.tab' I posted.
INTRO
C5 G5 G#5 (soft long slide)
e-|-----------------------------------|
B-|-----------------------------------|
G-|-5---------------------------------|
D-|-5---5---6-------------------------|
A-|-3-3-5---6-------------------------|
E-|-----3-3-4-4-------------////////--|
CRA-ZY !
C5 G5 G#5
e-|--------------------------------------------------|
B-|--------------------------------------------------|
G-|-5------------------------------------------------|
D-|-5---5---6----------------------------------------|
A-|-3-3-5---6----------------------------------------|
E-|-----3-3-4-4--------------------------------------|
|
| spoons adapted
| for guitar ;-)
e-|-----------------13-13-13-13-13-------------------|
B-|----------------------------------13-13-13-13-13--|
G-|--------------------------------------------------|
D-|--------------------------------------------------|
A-|--------------------------------------------------|
E-|--------------------------------------------------|
C5 G5 G#5 G5 C5
e-|--------------------------------------------------|
B-|--------------------------------------------------|
G-|-5--------------------------------5---------------|
D-|-5---5---6-------5----------------5---------------|
A-|-3-3-5---6-------5----------------3---------------|
E-|-----3-3-4-4-----3--------------------------------|
|
e-|-----------------13-13-13-13-13-------------------|
B-|----------------------------------13-13-13-13-13--|
G-|--------------------------------------------------|
D-|--------------------------------------------------|
A-|--------------------------------------------------|
E-|--------------------------------------------------|
VERSE
(only a bass and a guitar with wah-wah effect)
G-|-----------------------------------------|
D-|-----------------------------------------|
A-|-3---------------------------------------|
E-|-----3---4-------------------------------|
|
e-|-----------------------------------------|
B-|-----------------------------------------|
G-|--------------------------------3h5------|
D-|-----------------------------------------|
A-|-----------------------------------------|
E-|-----------------------------------------|
(slap and pluck)
G-|---5---------5---------------------------|
D-|-----------------------------------------|
A-|-3---------(3)---------------------------|
E-|-----3---4-------------------------------|
|
e-|-----------------------------------------|
B-|--------------------------------------4--|
G-|--------------------------------3h5---3--|
D-|--------------------------------3h5------|
A-|-----------------------------------------|
E-|-----------------------------------------|
G-|---5---------5---------------------------|
D-|-----------------------------------------|
A-|-3---------(3)---------------------------|
E-|-----3---4-------------------------------|
|
e-|-----------------------------------------|
B-|-----------------------------------------|
G-|--------------------------------3h5------|
D-|--------------------------------3h5------|
A-|-----------------------------------------|
E-|-----------------------------------------|
repeat this last part once then...
PRE-CHORUS
Fm G Cm A#
e-|---------------------------------|
B-|------------------------4---3----|
G-|-1----1---------4-------5---3----|
D-|-3----3---------5-------5---3----|
A-|-3----3---------5-------3---1----|
E-|-1----1---------3----------------|
G# G
e-|-----------------------------------------|
B-|-----------------------------------------|
G-|-5---------------------------4-----------|
D-|-6---------------------------5-----------|
A-|-6---------------------------5-----------|
E-|-4---------------------------3-----------|
CHORUS
C5 G5 G#5 (wah-wah)
e-|-----------------------------------------------|
B-|-----------------------------------------------|
G-|-5-------------------------------------3p5-----|
D-|-5---5---6-------------------------------------|
A-|-3-3-5---6-------------------------------------|
E-|-----3-3-4-4-----------------------------------|
C5 G5 G#5 G5 C5
e-|----------------------------------------------|
B-|----------------------------------------------|
G-|-5----------------------------5---------------|
D-|-5-----5----6----------5------5---------------|
A-|-3-3---5----6----------5------3---------------|
E-|-------3--3-4-4--------3----------------------|
C5 G5 G#5 A# D# D#/D
e-|-------------------------------------|
B-|----------------------------8---(8)--|
G-|-5------------------7-------8---(8)--|
D-|-5---5---6----------8-------8----8---|
A-|-3-3-5---6----------8-------6----5---|
E-|-----3-3-4-4--------6----------------|
C5 G5 G#5 G5 C5/B C5
e-|----------------------------------------------|
B-|----------------------------------------------|
G-|-5--------------------------------(5)--5------|
D-|-5-----5--------6---------------5--5---5------|
A-|-3-3---5--------6---------------5--2---3------|
E-|-------3---3----4--4------------3-------------|
VERSE
PRE-CHORUS
CHORUS
BREAK
(spoons part)
e-|-13-13-13-13-13-------------------|
B-|------------------13-13-13-13-13--|
G-|----------------------------------|
D-|----------------------------------|
A-|----------------------------------|
E-|----------------------------------|
e-|-13-13-13-13-13-------------------|
B-|------------------13-13-13-13-13--|
G-|----------------------------------|
D-|----------------------------------|
A-|----------------------------------|
E-|----------------------------------|
C5 G5 G#5
e-|--------------------------------------------------|
B-|--------------------------------------------------|
G-|-5------------------------------------------------|
D-|-5---5---6----------------------------------------|
A-|-3---5---6----------------------------------------|
E-|-----3---4----------------------------------------|
|
e-|-----------------13-13-13-13-13-------------------|
B-|----------------------------------13-13-13-13-13--|
G-|--------------------------------------------------|
D-|--------------------------------------------------|
A-|--------------------------------------------------|
E-|--------------------------------------------------|
C5 G5 G#5
e-|--------------------------------------------------|
B-|--------------------------------------------------|
G-|-5------------------------------------------------|
D-|-5---5---6----------------------------------------|
A-|-3---5---6----------------------------------------|
E-|-----3---4----------------------------------------|
|
e-|-----------------13-13-13-13-13-------------------|
B-|----------------------------------13-13-13-13-13--|
G-|--------------------------------------------------|
D-|--------------------------------------------------|
A-|--------------------------------------------------|
E-|--------------------------------------------------|
Cm G
e-|------------------------------|
B-|-(4)--------------------------|
G-|--5------4--------------------|
D-|--5------5--------------\\\\\-| Here ya can make a
A-|--3------5--------------\\\\\-| huge slide...
E-|--------(3)-------------\\\\\-|
Ooh... ooh... STOP !
C5 (go "crescendo" < )
e-|---------------------------------|
B-|---------------------------------|
G-|-5---5---5---5---5---5---5---5---|
D-|-5---5---5---5---5---5---5---5---|
A-|---3---3---3---3---3---3---3---3-|
E-|---------------------------------|
CHORUS
OUTRO
C5 G5 G#5
e-|--------------------------------------------------|
B-|--------------------------------------------------|
G-|-5------------------------------------------------|
D-|-5---5---6----------------------------------------|
A-|-3-3-5---6----------------------------------------|
E-|-----3-3-4-4--------------------------------------|
|
e-|-----------------13-13-13-13-13-------------------|
B-|----------------------------------13-13-13-13-13--|
G-|--------------------------------------------------|
D-|--------------------------------------------------|
A-|--------------------------------------------------|
E-|--------------------------------------------------|
C5 G5 G#5 G5 C5
e-|--------------------------------------------------|
B-|--------------------------------------------------|
G-|-5--------------------------------5---------------|
D-|-5---5---6-------5----------------5---------------|
A-|-3-3-5---6-------5----------------3---------------|
E-|-----3-3-4-4-----3--------------------------------|
|
e-|-----------------13-13-13-13-13-------------------|
B-|----------------------------------13-13-13-13-13--|
G-|--------------------------------------------------|
D-|--------------------------------------------------|
A-|--------------------------------------------------|
E-|--------------------------------------------------|
then tha following chords : C5 G5 G#5 - A# - D# D#/D
C5 G#5 G5 C5/B C5
e-|----------------------------------------------|
B-|----------------------------------------------|
G-|-5--------------------------------(5)--5------|
D-|-5--------------6---------------5--5---5------|
A-|-3--------------6---------------5--2---3------|
E-|----------------4---------------3-------------|
-- -- -- -- -- -- -- -- -- -- -- -- -- -- -- -- -- -- -- -- -- -- --




Ваше мнение



Капча