Main Riff
e|------------------------------------------------------------------------|
B|-------------6/8------------5-------------7------------5-4--------------|
G|---------9---------------5------------7-------------4-------------------|
D|------9--------------5------------7--------------4----------------------|
A|--7---------------3------------5--------------2-------------------------|
E|------------------------------------------------------------------------|

then right before the chorus it changes a little
e|-------------------------------------------------------------------------|
B|-----------8-------------7-----------5-----------5-4---------------------|
G|--------9-------------7-----------5-----------4--------------------------|
D|-----9-------------7-----------5-----------4-----------------------------|
A|--7-------------5-----------3-----------2--------------------------------|
E|-------------------------------------------------------------------------|

The chorus is all techno-ish, but you can play this. which is also for the
part at the end that is acoustic and fades out
e|-------------------------------------------------------------------------|
B|--------------------------------------------5-4--------------------------|
G|--9-9-9-9-9---5-5-5-5-5---------------4-4-4-4-4--------------------------|
D|--9-9-9-9-9---5-5-5-5-5--5-5-5-5-5----4-4-4-4-4--------------------------|
A|--7-7-7-7-7---3-3-3-3-3--5-5-5-5-5----2-2-2-2-2--------------------------|
E|-------------------------3-3-3-3-3---------------------------------------|

The solo, again its techno beat, but you can play this:
e|-------------------------------------------------------------------------|
B|---8--7-----8--7------------8--7----------8--7---------7--8--8-----------|
G|---------9--------9---9--9--------9--9-9-------9----9-----------7--------|
D|-------------------------------------------------------------------------|
A|-------------------------------------------------------------------------|
E|-------------------------------------------------------------------------|

e|-------------------------------------------------------------------------|
B|-------------------------------------------------------------------------|
G|-4--5--7--7-5--4--2------------------------------------------------------|
D|-------------------------------------------------------------------------|
A|-------------------------------------------------------------------------|
E|-------------------------------------------------------------------------|




Ваше мнение



Капча