(F) (C) (G) (Am)
E ----1----------0-------------3-------------0
B ----1--1h3p1---1----1h3p1----0----0h3p0----1
G ----2----------0-------------0-------------2
D -3-------------2-------------0-------------2
A ------------3----------------2----------0---
E --------------------------3-----------------
(F) (c) (G) (G)
E ----1----------0-------------3---------3----
B ----1--1h3p1---1----1h3p1----0---------0----
G ----2----------0-------------0---------0----
D -3-------------2-------------0---------0----
A ------------3----------------2---------2----
E --------------------------3--------3-3------

F C G Am
Now and again it seems worse than it is
F C G
But mostly the view is accurate.
F C G Am
You see your breath in the air as you climb up the stairs
F C G
to that coffin you call your apartment.
Am E
And you sink in your chair
C G
Brush the snow from your hair
F C G
And drink the cold away
Am E
You are not really sure
C G
What you're doing this for
F C G
But you need something to fill up the days
Am E
A few more hours
C G Am E
C G Am Am
F C G Am
There is a dream in my brain that just won't go away
F C G
It's been stuck there since it came a few nights ago
F C G Am
And I'm standing on a bridge in the town where I lived
F C G
As a kid with my mom and my brothers
Am E
And then the bridge disappears
C G
And I'm standing on air
F C G
With nothing holding me
Am E
And I hang like a star
C G
Fucking glow in the dark
F C G
For all those starving eyes to see
Am E
Like the ones we've wished on
(No guitar at this part, but if you want to keep playing)
C G
But now I'm confused
Am F
Is this death really you?
C G Am
And do these dreams have any meaning?
C G
No, no, I think it is more like a ghost
Am F
That's been following us both
C G Am
Something vague that we're not seein
F C G
Something more like a feeling
Outro:
(F) (G) (C)
E ----1----------3-------------0----
B ----1--1h3p1---0----1h3p1----1----
G ----2----------0-------------0----
D -3-------------0-------------2----
A ---------------2-------------3----
E ------------3---------------------


Ваше мнение



Капча