GOING FOR THE GOLD
This song owns. I noticed there were no tabs for it on this site,
so I decided I would throw it up here.
Chords:
E---0--------0-------3--------2-------2--0--2--3--2--0--2----0---
B---5--------5-------0--------0-------1--1--3--3--3--0--2----0---
G---4--------4-------0--------0-------2--0--2--0--4--0--3----2---
D---5--------4-------3--------2-------x--2--0--0--4--2--4----2---
A---x--------x-------x--------x-------x--3--0--2--2--2--4----0---
E---x--------x-------x--------x-------x--0--0--3--0--0--x----0---
Asus2/G Esus2/E Csus4/B Bsus4/G D9 C D G Bm Em Gb Asus2
Intro/Verse1
E-----------0-------0----------0----------
B-----------5-------5----------5----------
G--------------4----4-------------4---4---
D---2/5--5-------5--5----4--4-------4-----
A-----------------------------------------
E-----------------------------------------
Asus2/G Esus2/E
E---------3-------3-------3-------3---
B---------0---------------0-------0---
G---------0--0-------0----0--0----0---
D---3--3-------0-------0-------0------
A-------------------------------------
E-------------------------------------
Csus4/B
E---------2------2-------2-------2---
B---------0--0------0----0--0----0---
G---------0----0------0--0----0--0---
D---2--2-----------------------------
A------------------------------------
E------------------------------------
Bsus4/G
E---------2---------------1/2--2---
B---------1--2----1-------0/0--1---
G--------------0--2--2-------------
D---0--0---------------0-----------
A----------------------------------
E----------------------------------
D9
Repeat 2x
2nd Intro
E---------5-0--------5-0-------------3-------3-------3-------3---
B---------0-0--------0-0-------------0---------------0-------0---
G------------------------------------0--0-------0----0--0----0---
D---5--5-------4--4------------3--3-------0-------0-------0------
A----------------------------------------------------------------
E----------------------------------------------------------------
Asus2/G Esus2/E Csus4/B
E---------2------2-------2-------2----------2---------------1/2--2---
B---------0--0------0----0--0----0----------1--2----1-------0/0--1---
G---------0----0------0--0----0--0---------------0--2--2-------------
D---2--2------------------------------0--0---------------0-----------
A--------------------------------------------------------------------
E--------------------------------------------------------------------
Bsus4/G D9
Singing starts: There's a voice on the phone...
Repeat Verse1 Throughout
Verse2
And though I know that my actions...
E-------------------------2----------------3--------------------------
B-------1-----------------3----------------0----------------3---------
G-------0--------------------2---2------------0---0---------4---------
D----------2---2----0--0-------0----------------0--------------4---4--
A-3--3-------3-----------------------------------------2--2------2----
E------------------------------------3--3-----------------------------
C D G Bm
E---------------------------2-----------------3----------
B---------1-----------------3-----------------0----------
G---------0--------------------2---2-------------0---0---
D------------2---2----0--0-------0-----------------0-----
A---3--3-------3-----------------------------------------
E---------------------------------------3--3-------------
C D G
E---------------------------2---------------------------
B---------1-----------------3----------------3----------
G---------0--------------------2---2---------4----------
D------------2---2----0--0-------0--------------4---4---
A---3--3-------3-----------------------2--2-------2-----
E-------------------------------------------------------
C D Bm
E-------------------------------------
B---------0-------0-------0-------0---
G---------0-------0-------0-------0---
D------------2-------2-------2--------
A--------------2-------2-------2------
E---0--0------------------------------
Em
E---------------------------2-----------------3----------
B---------1-----------------3-----------------0----------
G---------0--------------------2---2-------------0---0---
D------------2---2----0--0-------0-----------------0-----
A---3--3-------3-----------------------------------------
E---------------------------------------3--3-------------
C D G
E-------------------------------------------0---
B---------3-----------------0-------0-------0---
G---------4-----------------0-------0-----------
D------------2---2-------------2-------2--------
A---2--2-------4-----------------2-------2------
E---------------------0--0----------------------
Bm Em
E---------------------------2----------
B---------1-----------------3----------
G---------0--------------------2---2---
D------------2---2----0--0-------0-----
A---3--3-------3-----------------------
E--------------------------------------
C D
Play Intro, Then 2nd Intro
Play Verse1
...Well if it is...
E--------------------------------------
B---------2--------2-------2-------2---
G------------3-------3-------3---------
D---4--4--------4-------4-------4------
A--------------------------------------
E--------------------------------------
Gb
E----------------------------------------
B---------3--------3--------3--------3---
G---------4--------4--------4--------4---
D------------2--------2--------2---------
A---2--2--------4--------4--------4------
E----------------------------------------
Bm
E---------3--------3--------3-------3---
B---------0--------0--------0-------0---
G------------0--------0--------0--------
D---------------0--------0-------0------
A---------------------------------------
E---3--3--------------------------------
G
E----------------------------------------
B---------0--------0--------0--------0---
G---------2--------2--------2--------2---
D---2--2-----2--------2--------2---------
A---------------0--------0--------0------
E----------------------------------------
Asus2
Repeat 2x
Then Play Verse2
Then Play 2nd Intro
Outro
E---------5-5-0---------5-5-0---
B---------5-5-5---------5-5-5---
G-------------------------------
D---5--5----------4--4----------
A-------------------------------
E-------------------------------
Asus2/G Esus2/E
E---------3-------3-------3-------3---
B---------0---------------0-------0---
G---------0--0-------0----0--0----0---
D---3--3-------0-------0-------0------
A-------------------------------------
E-------------------------------------
Csus4/B
E---------2------2-------2-------2---
B---------0--0------0----0--0----0---
G---------0----0------0--0----0--0---
D---2--2-----------------------------
A------------------------------------
E------------------------------------
Bsus4/G
E---------2---------------1/2--2-----2------
B---------1--2----1-------0/0--1--1--1------
G--------------0--2--2---------2--2--2------
D---0--0---------------0--------------------
A---------------------------------------2---
E---------------------------------------3---
D9




Ваше мнение



Капча