Bright Eyes - Don't Know When But a Day is Gonna Come
Album: Lifted or The Story is in the Soil, Keep Your Ear to the Ground
Standard Tuning
Intro:
E--------0-----0-------------------0------0-------0--------
B-----------3------3--3---------------3------3-------3---3-
G------2-----2------2----2--2----2-----2------2-------2---- (2x)
D--0--------------------3--2--0----------------------------
A----------------------------------------------------------
E----------------------------------------------------------
Verse:
---------0------------------0------------0---------------0---------------
------------3--3---------------3--3----3---3---3-----------3--3----------
--------2----2----2--2----2-----2----2-------2--------2-----2----2--2----
----0------------3--2--0----------------------------0------------3--2--0-
-------------------------------------------------------------------------
-------------------------------------------------------------------------
“ Was it true what... Did he come to save
----0------0---------------------0------0--------------------0----------------
-------3-----3---3------------------3------3--3----------------3--3------3--3-
---2----2------2------2--2-----2----2-------2----2--2-----2----2------2--2--2-
---------------------3--2-------------------------3--2------------------------
----------------------------3----------------------------2------------1-------
------------------------------------------------------------------------------
If I dried his feet With my dirty hair Make me
--------0------0-----------------0------0------0-------
------------3-----3--3---------------3-----3------3--3-
-------2-----2-----2----2--2---2-----2------2------2---
----0------------------3--2--0------------------------- (Repeat from verse a billion times)
-------------------------------------------------------
-------------------------------------------------------
Clean again
Sometimes the top open string is not played but the 2nd string, note D is played instead. Just
listen to the song. I dont know the fast part, and oh yes this is a female that tabed
this one, thank you!




Ваше мнение



Капча