Artist: Breaking Benjamin
Song: Wish I May
Album: Saturate
Tabbed by: BenjaminBreaks4
Note:
h = hammer on
p = pull off
^ = bend up
r = release bend
/ = slide up
= slide down
* = palm mute
> = Pick scrape up and down
Intro
Eb|----------------------------------------------------------|
Bb|----------------------------------------------------------|
Gb|----------------------------------------------------------|
Dd|2->>>>>>>>>>>>>>>>>>>>>>>>>>>>>>>>>>>>>>>>>>>>>>>>>>>>----|
Ad|7-6-5-4-3-2-1-2-3-4-5-6-7-6-5-4-3-2-1-2-3-4-5-6-7>>>>>----|
Dd|7-6-5-4-3-2-1-2-3-4-5-6-7-6-5-4-3-2-1-2-3-4-5-6-7>>>>>----|

Eb|--------------------------------------------------------------|
Bb|--------------------------------------------------------------|
Gb|-------12-11-7-8--------14-16-14-------12-11-7-8--------7-5-7-|
Dd|-0-0-0------------0-0-0----------0-0-0------------0-0-0-------|
Ad|-0-0-0-10--9-5-6--0-0-0-12-14-12-0-0-0-10--9-5-6--0-0-0-5-3-5-|
Dd|-0-0-0------------0-0-0----------0-0-0------------0-0-0-------|
play 2x
Guitar 1
Eb|--------------------------------|
Bb|--------------------------------|
Gb|----------------------------3---|
Dd|-0-0-0-0-0-0--0-0-0-0-0-0-0-3---|
Ad|-0-0-0-0-0-0--0-0-0-0-0-0-0-1---|
Dd|-0-0-0-0-0-0--0-0-0-0-0-0-0-----|
* * * * * * * * * * * * *

Guitar 2

Eb|-------------------------------|
Bb|-------------------------------|
Gb|----------------------------8--|
Dd|-0-0-0-0-0-0--0-0-0-0-0-0-0-8--|
Ad|-0-0-0-0-0-0--0-0-0-0-0-0-0-6--|
Dd|-0-0-0-0-0-0--0-0-0-0-0-0-0----|
* * * * * * * * * * * * *

Guitar 1
Eb|--------------------------------|
Bb|--------------------------------|
Gb|------------------------8-8-8-7-|
Dd|-0-0-0-0-0-0--0-0-0-0-0-7-7-7-7-|
Ad|-0-0-0-0-0-0--0-0-0-0-0-6-6-6-5-|
Dd|-0-0-0-0-0-0--0-0-0-0-0---------|
* * * * * * * * * * *
Guitar 2
Eb|--------------------------------|
Bb|--------------------------------|
Gb|------------------------8-8-8-7-|
Dd|-0-0-0-0-0-0--0-0-0-0-0-8-8-8-7-|
Ad|-0-0-0-0-0-0--0-0-0-0-0-6-6-6-5-|
Dd|-0-0-0-0-0-0--0-0-0-0-0---------|
* * * * * * * * * * *
Verse
Guitar1
Eb|-------|
Bb|-------|
Gb|-7-87-|
Dd|-7-77-|
Ad|-5-65-|
Dd|-------|
*play 4x
Guitar 2
Eb|----------------------------------|
Bb|----------------------------------|
Gb|----------------------------------|
Dd|-0-0-0-0-0-0--0-0-0-0-0-0-0-------|
Ad|-0-0-0-0-0-0--0-0-0-0-0-0-0-------|
Dd|-0-0-0-0-0-0--0-0-0-0-0-0-0-------|
* * * * * * * * * * * * *

Prechorus

Eb|-----------------------------|-----------------------------|
Bb|-----------------------------|-----------------------------|
Gb|-----------------------------|-8-----8-----8-----8------8--|
Dd|-5-----5-----5-----5------5--|-7-----7-----7-----7------7--|
Ad|-5-----5-----5-----5------5--|-6-----6-----6-----6------6--|
Dd|-5-----5-----5-----5------5--|-----------------------------|

Guitar 2
Eb|-----------------------------|-----------------------------|
Bb|-----------------------------|-----------------------------|
Gb|-----------------------------|-8-----8-----8-----8------8--|
Dd|-5-----5-----5-----5------5--|-8-----8-----8-----8------8--|
Ad|-5-----5-----5-----5------5--|-6-----6-----6-----6------6--|
Dd|-5-----5-----5-----5------5--|-----------------------------|
Chorus
Eb|-----------------------------------------|
Bb|---3----3-------3---3--------------------|
Gb|-3---3---3--------3---3------------------|
Dd|-3-----------1---------------------------|
Ad|-1-----------1---------------------------|
Dd|-------------1---------------------------|
(2x)
Eb|-----------------------------------------|
Bb|---3----3-------3---3--------------------|
Gb|-5---3---3--------3---3------------------|
Dd|-5-----------1---------------------------|
Ad|-3-----------1---------------------------|
Dd|-------------1---------------------------|
(2x)

Play Intro
Bridge
Eb|------------------------------------|
Bb|------------------------------------|
Gb|------------------------------------|
Dd|-5-5-5-5-5-5-7----5-5-5-5-5-5--7-8--|
Ad|-5-5-5-5-5-5---8--5-5-5-5-5-5-------|
Dd|-5-5-5-5-5-5------5-5-5-5-5-5-------|

Eb|------------------------------------|
Bb|------------------------------------|
Gb|------------------------------------|
Dd|-5-5-5-5-5-5-7----1-1-1-1-1---------|
Ad|-5-5-5-5-5-5---8--1-1-1-1-1---------|
Dd|-5-5-5-5-5-5------1-1-1-1-1---------|
*play 2x
Solo (02:27)
Guitar 2
Eb|-----------------------------------------------------------|
Bb|-------------------------------------11-10-/8-6------------|
Gb|-----------------------------------------------------------|
Dd|-3h5-3-0-5h7-7b8-3h5-3-0-----------------------------------|
Ad|-------------------------5-6-6-6-5-5-----------------------|
Dd|-----------------------------|-----------------------------|
a.h--
Eb|-------------------------------|
Bb|-------------------------------|
Gb|-/8--7-5--7-7/8-7-5-7b8r7-(7)--|
Dd|-------------------------------|
Ad|-------------------------------|
Dd|-------------------------------|
Guitar 1 rhythm during solo
Eb|-----------------------------|-----------------------------|
Bb|-----------------------------|-----------------------------|
Gb|-----------------------------|-----------------------------|
Dd|-5----5--5--5-----1----/8---|-5----5--5--5-----1----/8---|
Ad|-5----5--5--5-----1----/8---|-5----5--5--5-----1----/8---|
Dd|-5----5--5--5-----1----/8---|-5----5--5--5-----1----/8---|
Eb|-----------------------------|-----------------------------|
Bb|-----------------------------|-----------------------------|
Gb|-----------------------------|-----------------------------|
Dd|-5----5--5--5-----1----/8---|-1----1----1----1-------1----|
Ad|-5----5--5--5-----1----/8---|-1----1----1----1-------1----|
Dd|-5----5--5--5-----1----/8---|-1----1----1----1-------1----|

Chorus
Eb|-----------------------------------------|
Bb|---3----3-------3---3--------------------|
Gb|-3---3---3--------3---3------------------|
Dd|-3-----------1---------------------------|
Ad|-1-----------1---------------------------|
Dd|-------------1---------------------------|
(2x)
Eb|-----------------------------------------|
Bb|---3----3-------3---3--------------------|
Gb|-5---3---3--------3---3------------------|
Dd|-5-----------1---------------------------|
Ad|-3-----------1---------------------------|
Dd|-------------1---------------------------|
(2x)

Eb|--------------------------------------------------------------|
Bb|--------------------------------------------------------------|
Gb|-------12-11-7-8--------14-16-14-------12-11-7-8--------7-5-7-|
Dd|-0-0-0------------0-0-0----------0-0-0------------0-0-0-------|
Ad|-0-0-0-10--9-5-6--0-0-0-12-14-12-0-0-0-10--9-5-6--0-0-0-5-3-5-|
Dd|-0-0-0------------0-0-0----------0-0-0------------0-0-0-------|

Outro
Guitar 2
Eb|-------------------------------------------|
Bb|-------------------------------------------|
Gb|-------------------------------------------|
Dd|-8-8-8-8--8-8-8-8--8-8-8-8--8-8-8--8-8-8-0-|
Ad|-6-6-6-6--6-6-6-6--6-6-6-6--6-6-6--6-6-6-0-|
Dd|-8-8-8-8--8-8-8-8--8-8-8-8--8-8-8--------0-|
Guitar 1
Eb|-----------------------------|----------------|
Bb|-----------------------------|----------------|
Gb|-8-8-8-8--8-8-8-8--8-8-8-8--8-8-8-8--8-8-8-7--|
Dd|-7-7-7-7--7-7-7-7--7-7-7-7--7-7-7-7--7-7-7-7--|
Ad|-6-6-6-6--6-6-6-6--6-6-6-6--6-6-6-6--6-6-6-5--|
Dd|----------------------------------------------|
Guitar 2
Eb|---|
Bb|---|
Gb|---|
Dd|-0-|
Ad|-0-|
Dd|-0-|
End
Eb|-5-5-5-6-6-3-6--------|
Bb|----------------------|
Gb|----------------------|
Dd|----------------------|
Ad|----------------------|
Dd|----------------------|




Ваше мнение



Капча