Breaking Benjamin
So Cold
Email me with any corrections or comments [email protected]
Tuning: Drop C
Intro
Guitar 1
|------------------------------
|------------------------------
|------------------------------
|----------3---------------8--7 x6
|---5---5--5-----10---10--10--8
|-0---0--------0----0----------
Guitar 2 (After guitar 1 plays riff twice, guitar 2 comes in)
|-10----------10----------------10-------------10--------------
|----10--13------10-10h13-10-8-----10--10h13------10-10h13-10-8
|--------------------------------------------------------------
|--------------------------------------------------------------
|--------------------------------------------------------------
|--------------------------------------------------------------
|-10----------10----------------10-------------10------------12
|----10--13------10-10h13-10-8-----10--10h13------10--13--10---
|--------------------------------------------------------------
|--------------------------------------------------------------
|--------------------------------------------------------------
|--------------------------------------------------------------
Guitar 1
|-----------------------------------------------------------
|-----------------------------------------------------------
|-----------------------------------------------------------
|-----------------------------------------------------------
|---8-5---3h5---7-7-3-------3h5----8-5---3h5---7-7-3---3h5--
|-0-----0-----0-------0-3h5------0-----0-----0-------0-----3
|-----------------------------------------------------------
|-----------------------------------------------------------
|-----------------------------------------------------------
|-----------------------------------------------------------
|---8-5---3h5---7-7-3-------3h5----8-5---3h5---7-7-3---3----
|-0-----0-----0-------0-3h5------0-----0-----0-------0---3-0
Guitar 2
|-10----------------10-------------12
|----10-10h13-10-8-----10-10h13-10---
|------------------------------------
|------------------------------------ x2
|------------------------------------
|------------------------------------
Verse
Guitar 1 (you hear this behind guitar 2 a buncha times)
|------------------------------------
|------------------------------------
|------------------------------------
|-0~-----------/3-0~------------/3-0~
|-0~-----------/3-0~------------/3-0~
|-0~-----------/3-0~------------/3-0~
Guitar 2
|---------------------------------------------------------------------------
|10--8--11--10-------10--8--11--10-------10--8--11--10-------10--8----------
|--------------10p7----------------10p7----------------10p7---------10--9--7
|---------------------------------------------------------------------------x2
|---------------------------------------------------------------------------
|---------------------------------------------------------------------------
|---------------------------------------------10----8----------------
|-10--8--11--10-----10--8--11--10---10--8--11----10----10--8---------
|---------------7--------------------------------------------10--9--7
|--------------------------------------------------------------------
|--------------------------------------------------------------------
|--------------------------------------------------------------------
Chorus (figure out strumming pattern)
Guitar 1
|---------------------------------------------------------------
|---------------------------------------------------------------
|---------------------------------------------------------------
|-3-3-3-3--0-0--0-0--0-0--0-0-5--3-3-3-3--0-0--0-0--0-0--0-0-5-2
|-1-1-1-1--0-0--0-0--0-0--0-0-3--1-1-1-1--0-0--0-0--0-0--0-0-3-0
|----------0-0--0-0--0-0--0-0-------------0-0--0-0--0-0--0-0----
Guitar 2
|---6-6-6--------------------------6-6-6-------------------------
|---6-6-6--------------------------6-6-6-------------------------
|----------------------------------------------------------------
|----------0-0--0-0--0-0--0-0-5-----------0-0--0-0--0-0--0-0--5-2
|----------0-0--0-0--0-0--0-0-3-----------0-0--0-0--0-0--0-0--3-0
|----------0-0--0-0--0-0--0-0-------------0-0--0-0--0-0--0-0-----
Guitar 1
|---------------------------------------------------------------
|---------------------------------------------------------------
|---------------------------------------------------------------
|-3-3-3-3--0-0--0-0--0-0--0-0-5--3-3-3-3-3-3-3-3-5-5-5-5-5-5-5-5
|-1-1-1-1--0-0--0-0--0-0--0-0-3--1-1-1-1-1-1-1-1-3-3-3-3-3-3-3-3
|----------0-0--0-0--0-0--0-0-----------------------------------
Guitar 2
|---6-6-6-------------------------------------------------------
|---6-6-6--3----5----6----8-------------------------------------
|---------------------------------------------------------------
|--------------------------------3-3-3-3-3-3-3-3-5-5-5-5-5-5-5-5
|--------------------------------1-1-1-1-1-1-1-1-3-3-3-3-3-3-3-3
|---------------------------------------------------------------
Post Chorus
Guitar 1
|-----------------------------------------------------------
|-----------------------------------------------------------
|-----------------------------------------------------------
|-----------------------------------------------------------
|---8-5---3h5---7-7-3-------3h5----8-5---3h5---7-7-3---3----
|-0-----0-----0-------0-3h5------0-----0-----0-------0---3-0
|-10----------------10-------------12
|----10-10h13-10-8-----10-10h13-10---
|------------------------------------
|------------------------------------
|------------------------------------
|------------------------------------
Verse
Guitar 1 (you hear this behind guitar 2 alot of times)
|------------------------------------
|------------------------------------
|------------------------------------
|-0~-----------/3-0~------------/3-0~
|-0~-----------/3-0~------------/3-0~
|-0~-----------/3-0~------------/3-0~
Guitar 2
|---------------------------------------------------------------------------
|10--8--11--10-------10--8--11--10-------10--8--11--10-------10--8----------
|--------------10p7----------------10p7----------------10p7---------10--9--7
|---------------------------------------------------------------------------x2
|---------------------------------------------------------------------------
|---------------------------------------------------------------------------
|---------------------------------------------10----8----------------
|-10--8--11--10-----10--8--11--10---10--8--11----10----10--8---------
|---------------7--------------------------------------------10--9--7
|--------------------------------------------------------------------
|--------------------------------------------------------------------
|--------------------------------------------------------------------
Chorus (figure out strumming pattern)
Guitar 1
|---------------------------------------------------------------
|---------------------------------------------------------------
|---------------------------------------------------------------
|-3-3-3-3--0-0--0-0--0-0--0-0-5--3-3-3-3--0-0--0-0--0-0--0-0-5-2
|-1-1-1-1--0-0--0-0--0-0--0-0-3--1-1-1-1--0-0--0-0--0-0--0-0-3-0
|----------0-0--0-0--0-0--0-0-------------0-0--0-0--0-0--0-0----
Guitar 2
|---6-6-6--------------------------6-6-6-------------------------
|---6-6-6--------------------------6-6-6-------------------------
|----------------------------------------------------------------
|----------0-0--0-0--0-0--0-0-5-----------0-0--0-0--0-0--0-0--5-2
|----------0-0--0-0--0-0--0-0-3-----------0-0--0-0--0-0--0-0--3-0
|----------0-0--0-0--0-0--0-0-------------0-0--0-0--0-0--0-0-----
Guitar 1
|---------------------------------------------------------------
|---------------------------------------------------------------
|---------------------------------------------------------------
|-3-3-3-3--0-0--0-0--0-0--0-0-5--3-3-3-3-3-3-3-3-5-5-5-5-5-5-5-5
|-1-1-1-1--0-0--0-0--0-0--0-0-3--1-1-1-1-1-1-1-1-3-3-3-3-3-3-3-3
|----------0-0--0-0--0-0--0-0-----------------------------------
Guitar 2
|---6-6-6-------------------------------------------------------
|---6-6-6--3----5----6----8-------------------------------------
|---------------------------------------------------------------
|--------------------------------3-3-3-3-3-3-3-3-5-5-5-5-5-5-5-5
|--------------------------------1-1-1-1-1-1-1-1-3-3-3-3-3-3-3-3
|---------------------------------------------------------------
Bridge
Guitar 1 & 2
|---------------------------------------------
|---------------------------------------------
|---------------------------------------------
|--------------------------------------------- x2
|-------5------------5--------5--------3------
|-0-3h5----0--3--5-6----0-3h5----6-5-6---6-5-3
Solo (Guitar 2 is definitely not 100%, so if you have it perfect, correct me)
Guitar 1
|---------------------------------------------
|---------------------------------------------
|---------------------------------------------
|---------------------------------------------
|-------5------------5--------5--------3------
|-0-3h5----0--3--5-6----0-3h5----6-5-6---6-5-3
Guitar 2
|------------------------------------------------------------8b-10b-10b-10p8
|-10-10-10-10-----------------8b------------------------8-10----------------
|-10-10-10-10-10b-10b-10b-10b----10p7----7---------7-10---------------------
|-------------------------------------10---10-7-10--------------------------
|---------------------------------------------------------------------------
|---------------------------------------------------------------------------
Guitar 2 cont.
|-15b-15-13b-------------------------------------
|-------------15-13----13-------------------------
|-------------------14----14-12-14----12-------^--
|----------------------------------15----15-12-15b
|-------------------------------------------------
|-------------------------------------------------
Chorus (figure out strumming pattern)
Guitar 1
|---------------------------------------------------------------
|---------------------------------------------------------------
|---------------------------------------------------------------
|-3-3-3-3--0-0--0-0--0-0--0-0-5--3-3-3-3--0-0--0-0--0-0--0-0-5-2
|-1-1-1-1--0-0--0-0--0-0--0-0-3--1-1-1-1--0-0--0-0--0-0--0-0-3-0
|----------0-0--0-0--0-0--0-0-------------0-0--0-0--0-0--0-0----
Guitar 2
|---6-6-6--------------------------6-6-6-------------------------
|---6-6-6--------------------------6-6-6-------------------------
|----------------------------------------------------------------
|----------0-0--0-0--0-0--0-0-5-----------0-0--0-0--0-0--0-0--5-2
|----------0-0--0-0--0-0--0-0-3-----------0-0--0-0--0-0--0-0--3-0
|----------0-0--0-0--0-0--0-0-------------0-0--0-0--0-0--0-0-----
Guitar 1
|---------------------------------------------------------------
|---------------------------------------------------------------
|---------------------------------------------------------------
|-3-3-3-3--0-0--0-0--0-0--0-0-5--3-3-3-3-3-3-3-3-5-5-5-5-5-5-5-5
|-1-1-1-1--0-0--0-0--0-0--0-0-3--1-1-1-1-1-1-1-1-3-3-3-3-3-3-3-3
|----------0-0--0-0--0-0--0-0-----------------------------------
Guitar 2
|---6-6-6-------------------------------------------------------
|---6-6-6--3----5----6----8-------------------------------------
|---------------------------------------------------------------
|--------------------------------3-3-3-3-3-3-3-3-5-5-5-5-5-5-5-5
|--------------------------------1-1-1-1-1-1-1-1-3-3-3-3-3-3-3-3
|---------------------------------------------------------------
Bridge 2
Guitar 1
|--------------------------
|-10----10----10----10----8
|-10----10----10----10----9
|---0-0---0-0---0-0---0-0-- x6
|--------------------------
|--------------------------
. . . . . . . .
Guitar 2 (Guitar 1 plays riff twice, then guitar 2 comes in with this)
|-10----10----10----10----8
|-10----10----10----10----8
|--------------------------
|--------------------------
|--------------------------
|--------------------------
Outro (Not 100% sure on this either)
Guitar 1
|------------------
|----------------10
|----------------10
|-0-0-0---0-0-0----
|-0-0-0---0-0-0----
|-0-0-0---0-0-0----
Guitar 2
|----
|-10~
|-10~
|---- just keep playing this
|----
|----
Guitar 1
|--------------
|--------------
|--------------
|-0-0-0---0-0-0 repeat until end
|-0-0-0---0-0-0
|-0-0-0---0-0-0
Guitar 2
|---------------8----------------8----------------8-----------
|---------------8----------------8----------------8-----------
|-7--10--9--10-----7--10--9--10-----7--10--9--10-----7--10--9~
|-------------------------------------------------------------
|-------------------------------------------------------------
|-------------------------------------------------------------
END




Ваше мнение



Капча