Notation:
h - hammer on
p - pull off
b - bend string up
r - release bend
/ - slide up
- slide down
p.m. - palm muting
Tuning (low to high): Db, Ab, Db, Gb, Bb, Eb
Intro
Eb|-----------------------| |--------------|
Bb|-----------------------| |--------------|
Gb|-----------------------| |--------------|
Db|-0000000-77-5555555-88-| |-0000000-77-5-|
Ab|-0000000-77-5555555-88-| x3 |-0000000-77-5-|
Db|-0000000-77-5555555-88-| |-0000000-77-5-|
pm ... ... ...
Verse
Eb|---------------------| |---------------------|
Bb|---------------------| |---------------------|
Gb|---------------------| |---------------------|
Db|-0000000h7-5555555h8-| |-0000000h7-5555-7777-|
Ab|-0000000h7-5555555h8-| x3 |-0000000h7-5555-7777-|
Db|-0000000h7-5555555h8-| |-0000000h7-5555-7777-|
pm . ... . . ... .
Pre-Chorus
eb|---------------------------------------------------------|
Bb|--------------------------------6-7----6-7----6-7----6-7-|
Gb|----6-7----6-7----6-7----6-7-----------------------------|
Db|-55-----55-----55-----55-----55-----55-----55-----55-----|
Ab|-55-----55-----55-----55-----55-----55-----55-----55-----|
Db|-55-----55-----55-----55-----55-----55-----55-----55-----|
Chorus
eb|----------------------------|
Bb|----------------------------|
Gb|----------------------------|
Db|-00000000-77777777-55555555-|
Ab|-00000000-77777777-55555555-| x3
Db|-00000000-77777777-55555555-|
eb|-----------------------------------------------------|
Bb|----------------------------------------(7)(6)(7)(6)-|
Gb|-----------------------------------------------------|
Db|-00000000-77777777-55555555-7777777-5555-------------|
Ab|-00000000-77777777-55555555-7777777-5555-------------|
Db|-00000000-77777777-55555555-7777777-5555-------------|
Intro
eb|-----------------------| |--------------|
Bb|-----------------------| |--------------|
Gb|-----------------------| |--------------|
Db|-0000000-77-5555555-88-| |-0000000-77-5-|
Ab|-0000000-77-5555555-88-| |-0000000-77-5-|
Db|-0000000-77-5555555-88-| |-0000000-77-5-|
pm ... ... ...
Verse
eb|---------------------| |---------------------|
Bb|---------------------| |---------------------|
Gb|---------------------| |---------------------|
Db|-0000000h7-5555555h8-| |-0000000h7-5555-7777-|
Ab|-0000000h7-5555555h8-| x3 |-0000000h7-5555-7777-|
Db|-0000000h7-5555555h8-| |-0000000h7-5555-7777-|
pm . ... . . ... . . ... .
Pre-Chorus
eb|---------------------------------------------------------|
Bb|--------------------------------6-7----6-7----6-7----6-7-|
Gb|----6-7----6-7----6-7----6-7-----------------------------|
Db|-55-----55-----55-----55-----55-----55-----55-----55-----|
Ab|-55-----55-----55-----55-----55-----55-----55-----55-----|
Db|-55-----55-----55-----55-----55-----55-----55-----55-----|
Chorus
eb|----------------------------|
Bb|----------------------------|
Gb|----------------------------|
Db|-00000000-77777777-55555555-|
Ab|-00000000-77777777-55555555-| x3
Db|-00000000-77777777-55555555-|

eb|-----------------------------------------------------|
Bb|----------------------------------------(7)(6)(7)(6)-|
Gb|-----------------------------------------------------|
Db|-00000000-77777777-55555555-7777777-5555-------------|
Ab|-00000000-77777777-55555555-7777777-5555-------------|
Db|-00000000-77777777-55555555-7777777-5555-------------|
Breakdown
eb|---------------------------------------------------------------------------|
Bb|---------------------------------------------------------------------------|
Gb|-11111111-14141414-12121212-15151515-14141414-181818-19191919191919-212121-|
Db|--x-x-x-x--x-x-x-x--x-x-x-x--x-x-x-x--x-x-x-x--x-x-x--x-x-x-x-x-x-x--x-x-x-|
Ab|--9-9-9-9-12121212-10101010-13131313-12121212-161616-17171717171717-191919-|
Db|---------------------------------------------------------------------------|
eb|------------------------------------------------------------------------|
Bb|------------------------------------------------------------------------|
Gb|-11111111-14141414-12121212-15151515-14141414-181818-19191919-21212121^-|
Db|--x-x-x-x--x-x-x-x--x-x-x-x--x-x-x-x--x-x-x-x--x-x-x--x-x-x-x--x-x-x-x^-|
Ab|--9-9-9-9-12121212-10101010-13131313-12121212-161616-17171717-19191919^-|
Db|------------------------------------------------------------------------|
Pre-Chorus
eb|---------------------------------------------------------|
Bb|--------------------------------6-7----6-7----6-7----6-7-|
Gb|----6-7----6-7----6-7----6-7-----------------------------|
Db|-55-----55-----55-----55-----55-----55-----55-----55-----|
Ab|-55-----55-----55-----55-----55-----55-----55-----55-----|
Db|-55-----55-----55-----55-----55-----55-----55-----55-----|
Chorus
eb|----------------------------| |----------|
Bb|----------------------------| |----------|
Gb|----------------------------| |----------|
Db|-00000000-77777777-55555555-| |-7~----5~-|
Ab|-00000000-77777777-55555555-| x8 |-7~----5~-|
Db|-00000000-77777777-55555555-| |-7~----5~-|




Ваше мнение



Капча