--------------------------------------------------------------------------------
Breaking Benjamin- No Games
--------------------------------------------------------------------------------
Tabbed by: Reeder21
email: [email protected]
Tunning: Db, Ab, Db, Gb, Bb, Eb
Intro:
(clean)
Eb-----------------------------------
Bb-----------------------------------
Gb-----------------------------------
Db--4--2--0---4--2--0----------------
Ab--4--2--0---4--2--0----------------
Db--4--2--0---4--2--0----------------

Pre-chorus:
(distorted)
Eb---------------------------------
Bb---------------------------------
Gb---------------------------------
Db--2-4-0--2-4-0-------------------
Ab--2-4-0--2-4-0-------------------
Db--2-4-0--2-4-0-------------------
Chorus:
Eb---------------------------------------------------------
Bb---------------------------------------------------------
Gb---------------------------6-6-6-6-6-6--7-7-7-7-7-7------
Db-7-7-7-7-7-7--4-4-4-4-4-4--6-6-6-6-6-6--7-7-7-7-7-7------
Ab-7-7-7-7-7-7--4-4-4-4-4-4--4-4-4-4-4-4--5-5-5-5-5-5------
Db-7-7-7-7-7-7--4-4-4-4-4-4--------------------------------




Ваше мнение



Капча