-------------------------------------------------------------------------------
Breaking Benjamin-next to nothing
-------------------------------------------------------------------------------
Tabbed by:Reeder21
Email:[email protected]
Tuning: Db, Ab, Db, Gb, Bb, Eb
(4x) (verse)
Eb|-------------------------
Bb|-5-----------------------
Gb|-6---4-------------------
Db|-6---4----6--6-----------
Ab|-4---2----4--4-----------
Db|----------4--4-----------
(8x) (pre-chorus) (muted)
Eb|-------------------------
Bb|-------------------------
Gb|-------------------------
Db|--7-7-7-7----------------
Ab|--7-7-7-7----------------
Db|--7-7-7-7----------------
(chorus)
Eb|---------------------------
Bb|---------------------------
Gb|---------------------------
Db|-2-2-2---7-7---11-11--9-9--
Ab|-2-2-2---7-7---11-11--9-9--
Db|-2-2-2---7-7---11-11--9-9--
This is the basic song , I don’t have the bridge yet. I am working on it,

I love this band they are so awesome. If you need me contact me at [email protected]




Ваше мнение



Капча