4 String version

h=hammer-on
p=pull-off

Intro

Db)---------------------------------------------------|
Ab)---------------------------------------------------|
Db)0---0---0----0---0----0---0---0----0---0---0---0---|
Gb)--7---9---10---7---12---9---7---10---7---7---9---5-|

Breakdown

Db)0-0-0-0-0-0--|
Ab)-------------|
Db)-------------|
Gb)-------------|

Verse

Db)0-3-0---0-3--|
Ab)------1------|
Db)-------------|
Gb)-------------|

Chorus

Db)3-3-0-3-0-7-7-0-7-0-------10-10-10-8-8-8-10-10-10--|
Ab)--------------------8-8-8--------------------------|
Db)---------------------------------------------------|
Gb)---------------------------------------------------|

Breakdown to interlude

Db)8-8-8--------------------|
Ab)------8-8-8-7-7-7-3-3-3--|
Db)-------------------------|
Gb)-------------------------|

Interlude

Db)10h12-12-12-10-10-0-10h12p0-10h12p0-8-8-8---------------------|
Ab)------------------------------------------8-8-8-7-7-7-3-3-3---|
Db)--------------------------------------------------------------|
Gb)--------------------------------------------------------------|




Ваше мнение



Капча