--------------------------------------------------------------------------------
Breaking Benjamin- medicate
--------------------------------------------------------------------------------
Tabbed by: Reeder21
email: [email protected]
Tunning: Db, Ab, Db, Gb, Bb, Eb
Intro:
Eb---------------------------------------------
Bb---------------------------------------------
Gb---------------------------------------------
Db-8-8-8--4-4-4--8-8-8--7-7-7------------------
Ab-8-8-8--4-4-4--8-8-8--7-7-7------------------
Db-6-6-6--4-4-4--8-8-8--7-7-7------------------
(Bass Line)
Pre-chorus:
(Muted)
Eb----------------------------------
Bb----------------------------------
Gb----------------------------------
Db--7-7-7-7-------------------------
Ab--7-7-7-7-------------------------
Db--7-7-7-7-------------------------
Chorus:
Eb----------------------------------
Bb----------------------------------
Gb----------5-5-5-5-7-7-7-7---------
Db--3-3-3-3-5-5-5-5-7-7-7-7-8-8-8-8-
Ab--3-3-3-3-3-3-3-3-5-5-5-5-8-8-8-8-
Db--3-3-3-3-----------------8-8-8-8-




Ваше мнение



Капча