-------------------------------------------------------------------------------
Away - Breaking Benjamin
-------------------------------------------------------------------------------
Tabbed by: GnL Rocks 07
Email: [email protected]
Tuning: Drop C
Intro
guitar 1
D|---------------------------------------------------------------------------|
A|---------------------------------------------------------------------------|
F|---------------------------------------------------------------------------|
C|--------6-6-6-------6-6-6--3--1-------------------------------3--1---------|
G|---------------------------3--1----------6-6-6--------6-6-6---3--1---------|
C|-3-3-3--------3-3-3--------3--1----3-3-3--------3-3-3---------3--1---------|
D|---------------------------------------------------------------------------|
A|---------------------------------------------------------------------------|
F|---------------------------------------------------------------------------|
C|-----------------------------3--1-----------------------------3--6---------|
G|-------4-4-4---------4-4-4---3--1----------6-6-6-------6-6-6--3--6---------|
C|-3-3-3---------3-3-3---------3--1----3-3-3-------3-3-3--------3--6---------|
guitar 2
w/ wah~
D|---------------------------------------------------------------------------|
A|---------------------------------------------------------------------------|
F|--10~----10b~---------------------------------------------------------------|
C|---------------------------------------------------------------------------|
G|---------------------------------------------------------------------------|
C|---------------------------------------------------------------------------|
After two measures of the verse without guitar, guitar 1 comes in with the
intro riff, palm muting the Eb(the most commonly played chord throughout the intro).
chorus
D|---------------------------------------------------------------------------|
A|---------------------------------------------------------------------------|
F|--6--6-6--6----------------------------------------------------------------|
C|--6--6-6--6---6--6-6---1--1------------------------------------------------|
G|--4--4-4--4---6--6-6---1--1------------------------------------------------|
C|--------------6--6-6---1--1------------------------------------------------|
Sorry, don't know the little bridge right after the second chorus. Anyway,
this is my first tab, and I'm pretty sure its right. Enjoy...
| b bend
| / slide up
| slide down
| h hammer-on
| p pull-off
| ~ vibrato
| + harmonic
| x Mute note
===============================================================================




Ваше мнение



Капча