RIFF A:
xx1321
Dm7 Am Gm D#7sus2 A7 Dm7 A7
1|---------------------------------------------------|
2|-9r--10--------------------9r--10------------------|
3|--------10--------10-10-----------10-----9-9/9/9---|
4|------------7-7/8---------------------/7-----------|
5|---------------------------------------------------|
6|---------------------------------------------------|
=====
RIFF B1:
Dm7 Am Gm D#7sus2 A7 Dm7 A7
1|----8r--------------------------------------------------------|
2|-9r----9br----------11------9r--10----------------------10----|
3|------------------10--/10----------10-----9-9/9/9-----10------|
4|-----------/7-7-8----------------------/7-----------11--------|
5|--------------------------------------------------10----------|
6|--------------------------------------------------------------|
=====
RIFF B2:
Dm7 Am Gm D#7sus2 A7 Dm7 A7
1|-----8----9b~---10-8------------------------------------------|
2|-9r---9r------------7h8-6----------9r--10----------10------10-|
3|---10---10--------------------------------10-----9----9---10--|
4|--------------------------7-6-5~--------------/7---------11---|
5|--------------------------------------------------------------|
6|--------------------------------------------------------------|
=====
SOLO:
Dm7 Am Gm
1|------8----------------------------------|
2|--9h10-----------------------------------|
3|-------10/12-------10-10-----------------|
4|--------------10h12------10-12-----------|
5|-------------------------------108----8-|
6|------------------------------------10---|

D#7sus2 A7
1|--------------------------13.---12h13p12-10---------|
2|---------------------13h14-----------------13-10----|
3|----------12br--13h14----------------------------10-|
4|-----12h15----15------------------------------------|
5|11h13-----------------------------------------------|
6|----------------------------------------------------|
Dm7 A7 Dm7
1|-----------very quick!------------------------------------------|
2|---------------------------------------/13-13-13-13-13-13p12-/15|
3|-14p13p12--12r-10-----------------------------------------------|
4|-----------------12-12--12-10-----------------------------------|
5|------------------------------12-11-10--------------------------|
6|----------------------------------------------------------------|
(Dm7) Am G#m Gm Gm7
1|--------------10--13-----13-15---13-15----13-15------|
2|-----------------------15------15------15-------15~--|
3|---------12/14-------15------------------------------|
4|---10-12---------------------------------------------|
5|-12--------------------------------------------------|
6|-----------------------------------------------------|
D#7sus2 A7 Dm7 A7
1|-----13--16r---13--13/15----------------------------------------|
2|---15------------15---------------------------------------------|
3|-15------------------------12r-10-12----------------------------|
4|-------------------------------------12-15-14h15p14p12--12--10--|
5|--------------------------------------------------------------10|
6|----------------------------------------------------------------|
=====
В куплете соло-гитара играет те же аккорды "шаркающим"
боем (см. фанеру), но на верхних ладах.
RIFF A + B1
Dm B Gm A7
Когда погас последний свет в окне,
Dm7 B Gm A7
Когда слышны шаги часов,
Gm C7 Cm7 D7 Gm
Ищу тебя, ищу на радиоволне
A7 Gm7
Надежд и снов.
RIFF A + B2
Dm7 B Gm A7
Пустой эфир молчит, но до утра
Dm7 B Gm A7
Ловлю я в нем обрывки слов.
Gm C7 Cm7 D7 Gm
Всю ночь, всю ночь идет печальная игра
A7 Dm D7
Надежд и снов.
Gm A7
Мой ночной связной,
Dm G
на твою волну
Gm A7 Am7 D7
Я настроюсь до утра.
Gm A7
Мой ночной связной,
Dm G
я тебя так жду
Gm A7 B
Между завтра и вчера,
E7/9 A7
уу-уу, е-е.

SOLO

А ночь летит, летит, как облака,
И нет нигде таких часов,
Чтоб взвесить звук, он тих,
Он соткан из клубка надежд и снов.
Мой ночной связной, на твою волну
Я настроюсь до утра.
Мой ночной связной, я тебя так жду
Между завтра и вчера, уу-уу, е-е.




Ваше мнение



Капча